  0
SECTION
  2
HEADER
  9
$ACADVER
  1
AC1015
  9
$ACADMAINTVER
 70
     6
  9
$DWGCODEPAGE
  3
ANSI_1254
  9
$INSBASE
 10
0.0
 20
0.0
 30
0.0
  9
$EXTMIN
 10
0.0
 20
0.0
 30
0.0
  9
$EXTMAX
 10
279.4
 20
215.9
 30
0.0
  9
$LIMMIN
 10
0.0
 20
0.0
  9
$LIMMAX
 10
279.4
 20
215.9
  9
$ORTHOMODE
 70
     0
  9
$REGENMODE
 70
     1
  9
$FILLMODE
 70
     1
  9
$QTEXTMODE
 70
     0
  9
$MIRRTEXT
 70
     1
  9
$LTSCALE
 40
1.0
  9
$ATTMODE
 70
     1
  9
$TEXTSIZE
 40
3.5
  9
$TRACEWID
 40
1.0
  9
$TEXTSTYLE
  7
Standard
  9
$CLAYER
  8
0
  9
$CELTYPE
  6
ByLayer
  9
$CECOLOR
 62
   256
  9
$CELTSCALE
 40
1.0
  9
$DISPSILH
 70
     0
  9
$DIMSCALE
 40
1.0
  9
$DIMASZ
 40
3.5
  9
$DIMEXO
 40
1.0
  9
$DIMDLI
 40
3.75
  9
$DIMRND
 40
0.0
  9
$DIMDLE
 40
0.0
  9
$DIMEXE
 40
1.0
  9
$DIMTP
 40
0.0
  9
$DIMTM
 40
0.0
  9
$DIMTXT
 40
3.5
  9
$DIMCEN
 40
2.5
  9
$DIMTSZ
 40
0.0
  9
$DIMTOL
 70
     0
  9
$DIMLIM
 70
     0
  9
$DIMTIH
 70
     1
  9
$DIMTOH
 70
     1
  9
$DIMSE1
 70
     0
  9
$DIMSE2
 70
     0
  9
$DIMTAD
 70
     1
  9
$DIMZIN
 70
     0
  9
$DIMBLK
  1

  9
$DIMASO
 70
     1
  9
$DIMSHO
 70
     1
  9
$DIMPOST
  1

  9
$DIMAPOST
  1

  9
$DIMALT
 70
     0
  9
$DIMALTD
 70
     3
  9
$DIMALTF
 40
0.0393700787
  9
$DIMLFAC
 40
1.0
  9
$DIMTOFL
 70
     1
  9
$DIMTVP
 40
0.0
  9
$DIMTIX
 70
     0
  9
$DIMSOXD
 70
     0
  9
$DIMSAH
 70
     0
  9
$DIMBLK1
  1

  9
$DIMBLK2
  1

  9
$DIMSTYLE
  2
ISO-25
  9
$DIMCLRD
 70
     0
  9
$DIMCLRE
 70
     0
  9
$DIMCLRT
 70
     0
  9
$DIMTFAC
 40
1.0
  9
$DIMGAP
 40
1.524
  9
$DIMJUST
 70
     0
  9
$DIMSD1
 70
     0
  9
$DIMSD2
 70
     0
  9
$DIMTOLJ
 70
     0
  9
$DIMTZIN
 70
     0
  9
$DIMALTZ
 70
     0
  9
$DIMALTTZ
 70
     0
  9
$DIMUPT
 70
     0
  9
$DIMDEC
 70
     2
  9
$DIMTDEC
 70
     2
  9
$DIMALTU
 70
     2
  9
$DIMALTTD
 70
     3
  9
$DIMTXSTY
  7
Standard
  9
$DIMAUNIT
 70
     0
  9
$DIMADEC
 70
     2
  9
$DIMALTRND
 40
0.0
  9
$DIMAZIN
 70
     0
  9
$DIMDSEP
 70
    44
  9
$DIMATFIT
 70
     3
  9
$DIMFRAC
 70
     0
  9
$DIMLDRBLK
  1

  9
$DIMLUNIT
 70
     2
  9
$DIMLWD
 70
    -2
  9
$DIMLWE
 70
    -2
  9
$DIMTMOVE
 70
     0
  9
$LUNITS
 70
     2
  9
$LUPREC
 70
     2
  9
$SKETCHINC
 40
1.0
  9
$FILLETRAD
 40
10.0
  9
$AUNITS
 70
     0
  9
$AUPREC
 70
     2
  9
$MENU
  1
.
  9
$ELEVATION
 40
0.0
  9
$PELEVATION
 40
0.0
  9
$THICKNESS
 40
0.0
  9
$LIMCHECK
 70
     0
  9
$CHAMFERA
 40
0.0
  9
$CHAMFERB
 40
0.0
  9
$CHAMFERC
 40
0.0
  9
$CHAMFERD
 40
0.0
  9
$SKPOLY
 70
     0
  9
$TDCREATE
 40
2459741.592480197
  9
$TDUCREATE
 40
2459741.467480197
  9
$TDUPDATE
 40
2459741.592482338
  9
$TDUUPDATE
 40
2459741.467482338
  9
$TDINDWG
 40
0.0000000116
  9
$TDUSRTIMER
 40
0.0000000116
  9
$USRTIMER
 70
     1
  9
$ANGBASE
 50
0.0
  9
$ANGDIR
 70
     0
  9
$PDMODE
 70
     0
  9
$PDSIZE
 40
-1.0
  9
$PLINEWID
 40
0.0
  9
$SPLFRAME
 70
     0
  9
$SPLINETYPE
 70
     6
  9
$SPLINESEGS
 70
     8
  9
$HANDSEED
  5
15A
  9
$SURFTAB1
 70
     6
  9
$SURFTAB2
 70
     6
  9
$SURFTYPE
 70
     6
  9
$SURFU
 70
     6
  9
$SURFV
 70
     6
  9
$UCSBASE
  2

  9
$UCSNAME
  2

  9
$UCSORG
 10
0.0
 20
0.0
 30
0.0
  9
$UCSXDIR
 10
1.0
 20
0.0
 30
0.0
  9
$UCSYDIR
 10
0.0
 20
1.0
 30
0.0
  9
$UCSORTHOREF
  2

  9
$UCSORTHOVIEW
 70
     0
  9
$UCSORGTOP
 10
0.0
 20
0.0
 30
0.0
  9
$UCSORGBOTTOM
 10
0.0
 20
0.0
 30
0.0
  9
$UCSORGLEFT
 10
0.0
 20
0.0
 30
0.0
  9
$UCSORGRIGHT
 10
0.0
 20
0.0
 30
0.0
  9
$UCSORGFRONT
 10
0.0
 20
0.0
 30
0.0
  9
$UCSORGBACK
 10
0.0
 20
0.0
 30
0.0
  9
$PUCSBASE
  2

  9
$PUCSNAME
  2

  9
$PUCSORG
 10
0.0
 20
0.0
 30
0.0
  9
$PUCSXDIR
 10
1.0
 20
0.0
 30
0.0
  9
$PUCSYDIR
 10
0.0
 20
1.0
 30
0.0
  9
$PUCSORTHOREF
  2

  9
$PUCSORTHOVIEW
 70
     0
  9
$PUCSORGTOP
 10
0.0
 20
0.0
 30
0.0
  9
$PUCSORGBOTTOM
 10
0.0
 20
0.0
 30
0.0
  9
$PUCSORGLEFT
 10
0.0
 20
0.0
 30
0.0
  9
$PUCSORGRIGHT
 10
0.0
 20
0.0
 30
0.0
  9
$PUCSORGFRONT
 10
0.0
 20
0.0
 30
0.0
  9
$PUCSORGBACK
 10
0.0
 20
0.0
 30
0.0
  9
$USERI1
 70
     0
  9
$USERI2
 70
     0
  9
$USERI3
 70
     0
  9
$USERI4
 70
     0
  9
$USERI5
 70
     0
  9
$USERR1
 40
0.0
  9
$USERR2
 40
0.0
  9
$USERR3
 40
0.0
  9
$USERR4
 40
0.0
  9
$USERR5
 40
0.0
  9
$WORLDVIEW
 70
     1
  9
$SHADEDGE
 70
     3
  9
$SHADEDIF
 70
    70
  9
$TILEMODE
 70
     1
  9
$MAXACTVP
 70
    64
  9
$PINSBASE
 10
0.0
 20
0.0
 30
0.0
  9
$PLIMCHECK
 70
     0
  9
$PEXTMIN
 10
1.0000000000E+20
 20
1.0000000000E+20
 30
1.0000000000E+20
  9
$PEXTMAX
 10
-1.0000000000E+20
 20
-1.0000000000E+20
 30
-1.0000000000E+20
  9
$PLIMMIN
 10
0.0
 20
0.0
  9
$PLIMMAX
 10
420.0
 20
297.0
  9
$UNITMODE
 70
     0
  9
$VISRETAIN
 70
     1
  9
$PLINEGEN
 70
     0
  9
$PSLTSCALE
 70
     1
  9
$TREEDEPTH
 70
  3020
  9
$CMLSTYLE
  2
Standard
  9
$CMLJUST
 70
     0
  9
$CMLSCALE
 40
20.0
  9
$PROXYGRAPHICS
 70
     1
  9
$MEASUREMENT
 70
     1
  9
$CELWEIGHT
370
    -1
  9
$ENDCAPS
280
     0
  9
$JOINSTYLE
280
     0
  9
$LWDISPLAY
290
     1
  9
$INSUNITS
 70
     4
  9
$HYPERLINKBASE
  1

  9
$STYLESHEET
  1

  9
$XEDIT
290
     1
  9
$CEPSNTYPE
380
     0
  9
$PSTYLEMODE
290
     1
  9
$FINGERPRINTGUID
  2
{02233511-99a1-46c7-a2bf-6244f06c9dfc}
  9
$VERSIONGUID
  2
{FAEB1C32-E019-11D5-929B-00C0DF256EC4}
  9
$EXTNAMES
290
     1
  9
$PSVPSCALE
 40
0.0
  9
$OLESTARTUP
290
     0
  0
ENDSEC
  0
SECTION
  2
CLASSES
  0
CLASS
  1
ACDBDICTIONARYWDFLT
  2
AcDbDictionaryWithDefault
  3
ObjectDBX Classes
 90
        0
280
     0
281
     0
  0
CLASS
  1
VISUALSTYLE
  2
AcDbVisualStyle
  3
ObjectDBX Classes
 90
     4095
280
     0
281
     0
  0
CLASS
  1
MATERIAL
  2
AcDbMaterial
  3
ObjectDBX Classes
 90
     1153
280
     0
281
     0
  0
CLASS
  1
SCALE
  2
AcDbScale
  3
ObjectDBX Classes
 90
     1153
280
     0
281
     0
  0
CLASS
  1
TABLESTYLE
  2
AcDbTableStyle
  3
ObjectDBX Classes
 90
     4095
280
     0
281
     0
  0
CLASS
  1
MLEADERSTYLE
  2
AcDbMLeaderStyle
  3
ACDB_MLEADERSTYLE_CLASS
 90
     4095
280
     0
281
     0
  0
CLASS
  1
SUN
  2
AcDbSun
  3
SCENEOE
 90
     1153
280
     0
281
     0
  0
CLASS
  1
ACDBPLACEHOLDER
  2
AcDbPlaceHolder
  3
ObjectDBX Classes
 90
        0
280
     0
281
     0
  0
CLASS
  1
LAYOUT
  2
AcDbLayout
  3
ObjectDBX Classes
 90
        0
280
     0
281
     0
  0
ENDSEC
  0
SECTION
  2
TABLES
  0
TABLE
  2
VPORT
  5
8
330
0
100
AcDbSymbolTable
 70
     1
  0
VPORT
  5
29
330
8
100
AcDbSymbolTableRecord
100
AcDbViewportTableRecord
  2
*Active
 70
     0
 10
0.0
 20
0.0
 11
1.0
 21
1.0
 12
139.7
 22
107.95
 13
0.0
 23
0.0
 14
10.0
 24
10.0
 15
10.0
 25
10.0
 16
0.0
 26
0.0
 36
1.0
 17
0.0
 27
0.0
 37
0.0
 40
215.9
 41
1.2941176471
 42
50.0
 43
0.0
 44
0.0
 50
0.0
 51
0.0
 71
     0
 72
  2000
 73
     1
 74
     3
 75
     0
 76
     0
 77
     0
 78
     0
281
     0
 65
     1
110
0.0
120
0.0
130
0.0
111
1.0
121
0.0
131
0.0
112
0.0
122
1.0
132
0.0
 79
     0
146
0.0
  0
ENDTAB
  0
TABLE
  2
LTYPE
  5
5
330
0
100
AcDbSymbolTable
 70
     6
  0
LTYPE
  5
14
330
5
100
AcDbSymbolTableRecord
100
AcDbLinetypeTableRecord
  2
ByBlock
 70
     0
  3

 72
    65
 73
     0
 40
0.0
  0
LTYPE
  5
15
330
5
100
AcDbSymbolTableRecord
100
AcDbLinetypeTableRecord
  2
ByLayer
 70
     0
  3

 72
    65
 73
     0
 40
0.0
  0
LTYPE
  5
16
330
5
100
AcDbSymbolTableRecord
100
AcDbLinetypeTableRecord
  2
Continuous
 70
     0
  3
Solid line
 72
    65
 73
     0
 40
0.0
  0
LTYPE
  5
6E
330
5
100
AcDbSymbolTableRecord
100
AcDbLinetypeTableRecord
  2
HIDDEN
 70
     0
  3
Hidden __ __ __ __ __ __ __ __ __ __ __ __ __ __
 72
    65
 73
     2
 40
1.905
 49
1.27
 74
     0
 49
-0.635
 74
     0
  0
LTYPE
  5
6F
330
5
100
AcDbSymbolTableRecord
100
AcDbLinetypeTableRecord
  2
PHANTOM
 70
     0
  3
Phantom ______  __  __  ______  __  __  ______
 72
    65
 73
     6
 40
12.7
 49
6.35
 74
     0
 49
-1.27
 74
     0
 49
1.27
 74
     0
 49
-1.27
 74
     0
 49
1.27
 74
     0
 49
-1.27
 74
     0
  0
LTYPE
  5
70
330
5
100
AcDbSymbolTableRecord
100
AcDbLinetypeTableRecord
  2
CENTER
 70
     0
  3
Center ____ _ ____ _ ____ _ ____ _ ____ _ ____
 72
    65
 73
     4
 40
10.16
 49
6.35
 74
     0
 49
-1.27
 74
     0
 49
1.27
 74
     0
 49
-1.27
 74
     0
  0
LTYPE
  5
71
330
5
100
AcDbSymbolTableRecord
100
AcDbLinetypeTableRecord
  2
CENTERX2
 70
     0
  3
Center (2x) ________  __  ________  __  _____
 72
    65
 73
     4
 40
20.32
 49
12.7
 74
     0
 49
-2.54
 74
     0
 49
2.54
 74
     0
 49
-2.54
 74
     0
  0
LTYPE
  5
72
330
5
100
AcDbSymbolTableRecord
100
AcDbLinetypeTableRecord
  2
DOT2
 70
     0
  3
Dot (.5x) ........................................
 72
    65
 73
     2
 40
0.635
 49
0.0
 74
     0
 49
-0.635
 74
     0
  0
ENDTAB
  0
TABLE
  2
LAYER
  5
2
330
0
100
AcDbSymbolTable
 70
    17
  0
LAYER
  5
10
330
2
100
AcDbSymbolTableRecord
100
AcDbLayerTableRecord
  2
0
 70
     0
 62
     7
  6
Continuous
370
    -3
390
F
  0
LAYER
  5
73
330
2
100
AcDbSymbolTableRecord
100
AcDbLayerTableRecord
  2
FORMAT
 70
     0
 62
     7
  6
Continuous
370
    -3
390
F
  0
LAYER
  5
74
330
2
100
AcDbSymbolTableRecord
100
AcDbLayerTableRecord
  2
YARDIMCI_GEOMETRI
 70
     0
 62
    -6
  6
Continuous
290
     0
370
    -3
390
F
  0
LAYER
  5
75
330
2
100
AcDbSymbolTableRecord
100
AcDbLayerTableRecord
  2
SAYFA_CERCEVESI
 70
     0
 62
     7
  6
Continuous
370
    25
390
F
  0
LAYER
  5
76
330
2
100
AcDbSymbolTableRecord
100
AcDbLayerTableRecord
  2
ANTET
 70
     0
 62
     7
  6
Continuous
370
    -3
390
F
  0
LAYER
  5
77
330
2
100
AcDbSymbolTableRecord
100
AcDbLayerTableRecord
  2
OLCU
 70
     0
 62
   150
  6
Continuous
370
    -3
390
F
  0
LAYER
  5
78
330
2
100
AcDbSymbolTableRecord
100
AcDbLayerTableRecord
  2
METIN
 70
     0
 62
    96
  6
Continuous
370
    -3
390
F
  0
LAYER
  5
79
330
2
100
AcDbSymbolTableRecord
100
AcDbLayerTableRecord
  2
BALON
 70
     0
 62
     5
  6
Continuous
370
    -3
390
F
  0
LAYER
  5
7A
330
2
100
AcDbSymbolTableRecord
100
AcDbLayerTableRecord
  2
VURGU
 70
     0
 62
     7
  6
Continuous
370
    -3
390
F
  0
LAYER
  5
7B
330
2
100
AcDbSymbolTableRecord
100
AcDbLayerTableRecord
  2
SILIK
 70
     0
 62
     7
  6
Continuous
370
    -3
390
F
  0
LAYER
  5
7C
330
2
100
AcDbSymbolTableRecord
100
AcDbLayerTableRecord
  2
MODEL
 70
     0
 62
     7
  6
Continuous
370
    -3
390
F
  0
LAYER
  5
7D
330
2
100
AcDbSymbolTableRecord
100
AcDbLayerTableRecord
  2
DETAYLANDıRMA
 70
     0
 62
   190
  6
Continuous
370
    -3
390
F
  0
LAYER
  5
7E
330
2
100
AcDbSymbolTableRecord
100
AcDbLayerTableRecord
  2
TOLERANS
 70
     0
 62
   230
  6
Continuous
370
    -3
390
F
  0
LAYER
  5
7F
330
2
100
AcDbSymbolTableRecord
100
AcDbLayerTableRecord
  2
MERKEZ_CIZGILERI
 70
     0
 62
    30
  6
Continuous
370
    -3
390
F
  0
LAYER
  5
80
330
2
100
AcDbSymbolTableRecord
100
AcDbLayerTableRecord
  2
KESIT-DETAY_CIZGILERI
 70
     0
 62
     7
  6
Continuous
370
    -3
390
F
  0
LAYER
  5
81
330
2
100
AcDbSymbolTableRecord
100
AcDbLayerTableRecord
  2
\U+041E\U+0421\U+0415\U+0412\U+042B\U+0415
 70
     0
 62
     7
  6
Continuous
370
    -3
390
F
  0
LAYER
  5
82
330
2
100
AcDbSymbolTableRecord
100
AcDbLayerTableRecord
  2
\U+0412\U+041E\U+0414\U+042F\U+041D\U+042B\U+0415_\U+0417\U+041D\U+0410\U+041A\U+0418
 70
     0
 62
    11
  6
Continuous
370
    -3
390
F
  0
ENDTAB
  0
TABLE
  2
STYLE
  5
3
330
0
100
AcDbSymbolTable
 70
     1
  0
STYLE
  5
11
330
3
100
AcDbSymbolTableRecord
100
AcDbTextStyleTableRecord
  2
Standard
 70
     0
 40
0.0
 41
1.0
 50
0.0
 71
     0
 42
3.5
  3
txt
  4

  0
ENDTAB
  0
TABLE
  2
VIEW
  5
6
330
0
100
AcDbSymbolTable
 70
     0
  0
ENDTAB
  0
TABLE
  2
UCS
  5
7
330
0
100
AcDbSymbolTable
 70
     0
  0
ENDTAB
  0
TABLE
  2
APPID
  5
9
330
0
100
AcDbSymbolTable
 70
     1
  0
APPID
  5
12
330
9
100
AcDbSymbolTableRecord
100
AcDbRegAppTableRecord
  2
ACAD
 70
     0
  0
ENDTAB
  0
TABLE
  2
DIMSTYLE
  5
A
330
0
100
AcDbSymbolTable
 70
     1
100
AcDbDimStyleTable
  0
DIMSTYLE
105
27
330
A
100
AcDbSymbolTableRecord
100
AcDbDimStyleTableRecord
  2
ISO-25
 70
     0
 41
2.5
 42
0.625
 43
3.75
 44
1.25
 73
     0
 74
     0
 77
     1
 78
     8
140
2.5
141
2.5
143
0.0393700787
147
0.625
171
     3
172
     1
178
     0
271
     2
272
     2
274
     3
278
    44
283
     0
284
     8
340
11
  0
ENDTAB
  0
TABLE
  2
BLOCK_RECORD
  5
1
330
0
100
AcDbSymbolTable
 70
     9
  0
BLOCK_RECORD
  5
1F
330
1
100
AcDbSymbolTableRecord
100
AcDbBlockTableRecord
  2
*Model_Space
340
22
  0
BLOCK_RECORD
  5
1B
330
1
100
AcDbSymbolTableRecord
100
AcDbBlockTableRecord
  2
*Paper_Space
340
1E
  0
BLOCK_RECORD
  5
23
330
1
100
AcDbSymbolTableRecord
100
AcDbBlockTableRecord
  2
*Paper_Space0
340
26
  0
BLOCK_RECORD
  5
97
330
1
100
AcDbSymbolTableRecord
100
AcDbBlockTableRecord
  2
SW_CENTERMARKSYMBOL_0
340
0
102
{BLKREFS
331
A2
102
}
  0
BLOCK_RECORD
  5
A3
330
1
100
AcDbSymbolTableRecord
100
AcDbBlockTableRecord
  2
SW_CENTERMARKSYMBOL_1
340
0
102
{BLKREFS
331
AE
102
}
  0
BLOCK_RECORD
  5
AF
330
1
100
AcDbSymbolTableRecord
100
AcDbBlockTableRecord
  2
SW_CENTERMARKSYMBOL_2
340
0
102
{BLKREFS
331
BA
102
}
  0
BLOCK_RECORD
  5
BB
330
1
100
AcDbSymbolTableRecord
100
AcDbBlockTableRecord
  2
SW_CENTERMARKSYMBOL_3
340
0
102
{BLKREFS
331
C6
102
}
  0
BLOCK_RECORD
  5
C7
330
1
100
AcDbSymbolTableRecord
100
AcDbBlockTableRecord
  2
SW_CENTERMARKSYMBOL_4
340
0
102
{BLKREFS
331
D2
102
}
  0
BLOCK_RECORD
  5
D3
330
1
100
AcDbSymbolTableRecord
100
AcDbBlockTableRecord
  2
SW_CENTERMARKSYMBOL_5
340
0
102
{BLKREFS
331
DE
102
}
  0
BLOCK_RECORD
  5
DF
330
1
100
AcDbSymbolTableRecord
100
AcDbBlockTableRecord
  2
SW_CENTERMARKSYMBOL_6
340
0
102
{BLKREFS
331
EA
102
}
  0
BLOCK_RECORD
  5
EB
330
1
100
AcDbSymbolTableRecord
100
AcDbBlockTableRecord
  2
SW_CENTERMARKSYMBOL_7
340
0
102
{BLKREFS
331
F6
102
}
  0
ENDTAB
  0
ENDSEC
  0
SECTION
  2
BLOCKS
  0
BLOCK
  5
20
330
1F
100
AcDbEntity
  8
0
100
AcDbBlockBegin
  2
*Model_Space
 70
     0
 10
0.0
 20
0.0
 30
0.0
  3
*Model_Space
  1

  0
ENDBLK
  5
21
330
1F
100
AcDbEntity
  8
0
100
AcDbBlockEnd
  0
BLOCK
  5
1C
330
1B
100
AcDbEntity
 67
     1
  8
0
100
AcDbBlockBegin
  2
*Paper_Space
 70
     0
 10
0.0
 20
0.0
 30
0.0
  3
*Paper_Space
  1

  0
ENDBLK
  5
1D
330
1B
100
AcDbEntity
 67
     1
  8
0
100
AcDbBlockEnd
  0
BLOCK
  5
24
330
23
100
AcDbEntity
  8
0
100
AcDbBlockBegin
  2
*Paper_Space0
 70
     0
 10
0.0
 20
0.0
 30
0.0
  3
*Paper_Space0
  1

  0
ENDBLK
  5
25
330
23
100
AcDbEntity
  8
0
100
AcDbBlockEnd
  0
BLOCK
  5
98
330
97
100
AcDbEntity
  8
0
100
AcDbBlockBegin
  2
SW_CENTERMARKSYMBOL_0
 70
     0
 10
0.0
 20
0.0
 30
0.0
  3
SW_CENTERMARKSYMBOL_0
  1

  0
LINE
  5
9A
330
97
100
AcDbEntity
  8
FORMAT
 62
     0
100
AcDbLine
 10
0.0
 20
0.0
 30
0.0
 11
0.0
 21
2.5
 31
0.0
  0
LINE
  5
9B
330
97
100
AcDbEntity
  8
FORMAT
 62
     0
100
AcDbLine
 10
0.0
 20
0.0
 30
0.0
 11
-2.5
 21
0.0
 31
0.0
  0
LINE
  5
9C
330
97
100
AcDbEntity
  8
FORMAT
 62
     0
100
AcDbLine
 10
0.0
 20
0.0
 30
0.0
 11
0.0
 21
-2.5
 31
0.0
  0
LINE
  5
9D
330
97
100
AcDbEntity
  8
FORMAT
 62
     0
100
AcDbLine
 10
0.0
 20
0.0
 30
0.0
 11
2.5
 21
0.0
 31
0.0
  0
LINE
  5
9E
330
97
100
AcDbEntity
  8
FORMAT
 62
     0
100
AcDbLine
 10
0.0
 20
5.0
 30
0.0
 11
0.0
 21
128.5
 31
0.0
  0
LINE
  5
9F
330
97
100
AcDbEntity
  8
FORMAT
 62
     0
100
AcDbLine
 10
-5.0
 20
0.0
 30
0.0
 11
-128.5
 21
0.0
 31
0.0
  0
LINE
  5
A0
330
97
100
AcDbEntity
  8
FORMAT
 62
     0
100
AcDbLine
 10
0.0
 20
-5.0
 30
0.0
 11
0.0
 21
-128.5
 31
0.0
  0
LINE
  5
A1
330
97
100
AcDbEntity
  8
FORMAT
 62
     0
100
AcDbLine
 10
5.0
 20
0.0
 30
0.0
 11
128.5
 21
0.0
 31
0.0
  0
ENDBLK
  5
99
330
97
100
AcDbEntity
  8
0
100
AcDbBlockEnd
  0
BLOCK
  5
A4
330
A3
100
AcDbEntity
  8
0
100
AcDbBlockBegin
  2
SW_CENTERMARKSYMBOL_1
 70
     0
 10
0.0
 20
0.0
 30
0.0
  3
SW_CENTERMARKSYMBOL_1
  1

  0
LINE
  5
A6
330
A3
100
AcDbEntity
  8
FORMAT
 62
     0
100
AcDbLine
 10
0.0
 20
0.0
 30
0.0
 11
0.0
 21
2.5
 31
0.0
  0
LINE
  5
A7
330
A3
100
AcDbEntity
  8
FORMAT
 62
     0
100
AcDbLine
 10
0.0
 20
0.0
 30
0.0
 11
-2.5
 21
0.0
 31
0.0
  0
LINE
  5
A8
330
A3
100
AcDbEntity
  8
FORMAT
 62
     0
100
AcDbLine
 10
0.0
 20
0.0
 30
0.0
 11
0.0
 21
-2.5
 31
0.0
  0
LINE
  5
A9
330
A3
100
AcDbEntity
  8
FORMAT
 62
     0
100
AcDbLine
 10
0.0
 20
0.0
 30
0.0
 11
2.5
 21
0.0
 31
0.0
  0
LINE
  5
AA
330
A3
100
AcDbEntity
  8
FORMAT
 62
     0
100
AcDbLine
 10
0.0
 20
5.0
 30
0.0
 11
0.0
 21
11.5
 31
0.0
  0
LINE
  5
AB
330
A3
100
AcDbEntity
  8
FORMAT
 62
     0
100
AcDbLine
 10
-5.0
 20
0.0
 30
0.0
 11
-11.5
 21
0.0
 31
0.0
  0
LINE
  5
AC
330
A3
100
AcDbEntity
  8
FORMAT
 62
     0
100
AcDbLine
 10
0.0
 20
-5.0
 30
0.0
 11
0.0
 21
-11.5
 31
0.0
  0
LINE
  5
AD
330
A3
100
AcDbEntity
  8
FORMAT
 62
     0
100
AcDbLine
 10
5.0
 20
0.0
 30
0.0
 11
11.5
 21
0.0
 31
0.0
  0
ENDBLK
  5
A5
330
A3
100
AcDbEntity
  8
0
100
AcDbBlockEnd
  0
BLOCK
  5
B0
330
AF
100
AcDbEntity
  8
0
100
AcDbBlockBegin
  2
SW_CENTERMARKSYMBOL_2
 70
     0
 10
0.0
 20
0.0
 30
0.0
  3
SW_CENTERMARKSYMBOL_2
  1

  0
LINE
  5
B2
330
AF
100
AcDbEntity
  8
FORMAT
 62
     0
100
AcDbLine
 10
0.0
 20
0.0
 30
0.0
 11
0.0
 21
2.5
 31
0.0
  0
LINE
  5
B3
330
AF
100
AcDbEntity
  8
FORMAT
 62
     0
100
AcDbLine
 10
0.0
 20
0.0
 30
0.0
 11
-2.5
 21
0.0
 31
0.0
  0
LINE
  5
B4
330
AF
100
AcDbEntity
  8
FORMAT
 62
     0
100
AcDbLine
 10
0.0
 20
0.0
 30
0.0
 11
0.0
 21
-2.5
 31
0.0
  0
LINE
  5
B5
330
AF
100
AcDbEntity
  8
FORMAT
 62
     0
100
AcDbLine
 10
0.0
 20
0.0
 30
0.0
 11
2.5
 21
0.0
 31
0.0
  0
LINE
  5
B6
330
AF
100
AcDbEntity
  8
FORMAT
 62
     0
100
AcDbLine
 10
0.0
 20
5.0
 30
0.0
 11
0.0
 21
11.5
 31
0.0
  0
LINE
  5
B7
330
AF
100
AcDbEntity
  8
FORMAT
 62
     0
100
AcDbLine
 10
-5.0
 20
0.0
 30
0.0
 11
-11.5
 21
0.0
 31
0.0
  0
LINE
  5
B8
330
AF
100
AcDbEntity
  8
FORMAT
 62
     0
100
AcDbLine
 10
0.0
 20
-5.0
 30
0.0
 11
0.0
 21
-11.5
 31
0.0
  0
LINE
  5
B9
330
AF
100
AcDbEntity
  8
FORMAT
 62
     0
100
AcDbLine
 10
5.0
 20
0.0
 30
0.0
 11
11.5
 21
0.0
 31
0.0
  0
ENDBLK
  5
B1
330
AF
100
AcDbEntity
  8
0
100
AcDbBlockEnd
  0
BLOCK
  5
BC
330
BB
100
AcDbEntity
  8
0
100
AcDbBlockBegin
  2
SW_CENTERMARKSYMBOL_3
 70
     0
 10
0.0
 20
0.0
 30
0.0
  3
SW_CENTERMARKSYMBOL_3
  1

  0
LINE
  5
BE
330
BB
100
AcDbEntity
  8
FORMAT
 62
     0
100
AcDbLine
 10
0.0
 20
0.0
 30
0.0
 11
0.0
 21
2.5
 31
0.0
  0
LINE
  5
BF
330
BB
100
AcDbEntity
  8
FORMAT
 62
     0
100
AcDbLine
 10
0.0
 20
0.0
 30
0.0
 11
-2.5
 21
0.0
 31
0.0
  0
LINE
  5
C0
330
BB
100
AcDbEntity
  8
FORMAT
 62
     0
100
AcDbLine
 10
0.0
 20
0.0
 30
0.0
 11
0.0
 21
-2.5
 31
0.0
  0
LINE
  5
C1
330
BB
100
AcDbEntity
  8
FORMAT
 62
     0
100
AcDbLine
 10
0.0
 20
0.0
 30
0.0
 11
2.5
 21
0.0
 31
0.0
  0
LINE
  5
C2
330
BB
100
AcDbEntity
  8
FORMAT
 62
     0
100
AcDbLine
 10
0.0
 20
5.0
 30
0.0
 11
0.0
 21
11.5
 31
0.0
  0
LINE
  5
C3
330
BB
100
AcDbEntity
  8
FORMAT
 62
     0
100
AcDbLine
 10
-5.0
 20
0.0
 30
0.0
 11
-11.5
 21
0.0
 31
0.0
  0
LINE
  5
C4
330
BB
100
AcDbEntity
  8
FORMAT
 62
     0
100
AcDbLine
 10
0.0
 20
-5.0
 30
0.0
 11
0.0
 21
-11.5
 31
0.0
  0
LINE
  5
C5
330
BB
100
AcDbEntity
  8
FORMAT
 62
     0
100
AcDbLine
 10
5.0
 20
0.0
 30
0.0
 11
11.5
 21
0.0
 31
0.0
  0
ENDBLK
  5
BD
330
BB
100
AcDbEntity
  8
0
100
AcDbBlockEnd
  0
BLOCK
  5
C8
330
C7
100
AcDbEntity
  8
0
100
AcDbBlockBegin
  2
SW_CENTERMARKSYMBOL_4
 70
     0
 10
0.0
 20
0.0
 30
0.0
  3
SW_CENTERMARKSYMBOL_4
  1

  0
LINE
  5
CA
330
C7
100
AcDbEntity
  8
FORMAT
 62
     0
100
AcDbLine
 10
0.0
 20
0.0
 30
0.0
 11
0.0
 21
2.5
 31
0.0
  0
LINE
  5
CB
330
C7
100
AcDbEntity
  8
FORMAT
 62
     0
100
AcDbLine
 10
0.0
 20
0.0
 30
0.0
 11
-2.5
 21
0.0
 31
0.0
  0
LINE
  5
CC
330
C7
100
AcDbEntity
  8
FORMAT
 62
     0
100
AcDbLine
 10
0.0
 20
0.0
 30
0.0
 11
0.0
 21
-2.5
 31
0.0
  0
LINE
  5
CD
330
C7
100
AcDbEntity
  8
FORMAT
 62
     0
100
AcDbLine
 10
0.0
 20
0.0
 30
0.0
 11
2.5
 21
0.0
 31
0.0
  0
LINE
  5
CE
330
C7
100
AcDbEntity
  8
FORMAT
 62
     0
100
AcDbLine
 10
0.0
 20
5.0
 30
0.0
 11
0.0
 21
11.5
 31
0.0
  0
LINE
  5
CF
330
C7
100
AcDbEntity
  8
FORMAT
 62
     0
100
AcDbLine
 10
-5.0
 20
0.0
 30
0.0
 11
-11.5
 21
0.0
 31
0.0
  0
LINE
  5
D0
330
C7
100
AcDbEntity
  8
FORMAT
 62
     0
100
AcDbLine
 10
0.0
 20
-5.0
 30
0.0
 11
0.0
 21
-11.5
 31
0.0
  0
LINE
  5
D1
330
C7
100
AcDbEntity
  8
FORMAT
 62
     0
100
AcDbLine
 10
5.0
 20
0.0
 30
0.0
 11
11.5
 21
0.0
 31
0.0
  0
ENDBLK
  5
C9
330
C7
100
AcDbEntity
  8
0
100
AcDbBlockEnd
  0
BLOCK
  5
D4
330
D3
100
AcDbEntity
  8
0
100
AcDbBlockBegin
  2
SW_CENTERMARKSYMBOL_5
 70
     0
 10
0.0
 20
0.0
 30
0.0
  3
SW_CENTERMARKSYMBOL_5
  1

  0
LINE
  5
D6
330
D3
100
AcDbEntity
  8
FORMAT
 62
     0
100
AcDbLine
 10
0.0
 20
0.0
 30
0.0
 11
0.0
 21
2.5
 31
0.0
  0
LINE
  5
D7
330
D3
100
AcDbEntity
  8
FORMAT
 62
     0
100
AcDbLine
 10
0.0
 20
0.0
 30
0.0
 11
-2.5
 21
0.0
 31
0.0
  0
LINE
  5
D8
330
D3
100
AcDbEntity
  8
FORMAT
 62
     0
100
AcDbLine
 10
0.0
 20
0.0
 30
0.0
 11
0.0
 21
-2.5
 31
0.0
  0
LINE
  5
D9
330
D3
100
AcDbEntity
  8
FORMAT
 62
     0
100
AcDbLine
 10
0.0
 20
0.0
 30
0.0
 11
2.5
 21
0.0
 31
0.0
  0
LINE
  5
DA
330
D3
100
AcDbEntity
  8
FORMAT
 62
     0
100
AcDbLine
 10
0.0
 20
5.0
 30
0.0
 11
0.0
 21
12.5
 31
0.0
  0
LINE
  5
DB
330
D3
100
AcDbEntity
  8
FORMAT
 62
     0
100
AcDbLine
 10
-5.0
 20
0.0
 30
0.0
 11
-12.5
 21
0.0
 31
0.0
  0
LINE
  5
DC
330
D3
100
AcDbEntity
  8
FORMAT
 62
     0
100
AcDbLine
 10
0.0
 20
-5.0
 30
0.0
 11
0.0
 21
-12.5
 31
0.0
  0
LINE
  5
DD
330
D3
100
AcDbEntity
  8
FORMAT
 62
     0
100
AcDbLine
 10
5.0
 20
0.0
 30
0.0
 11
12.5
 21
0.0
 31
0.0
  0
ENDBLK
  5
D5
330
D3
100
AcDbEntity
  8
0
100
AcDbBlockEnd
  0
BLOCK
  5
E0
330
DF
100
AcDbEntity
  8
0
100
AcDbBlockBegin
  2
SW_CENTERMARKSYMBOL_6
 70
     0
 10
0.0
 20
0.0
 30
0.0
  3
SW_CENTERMARKSYMBOL_6
  1

  0
LINE
  5
E2
330
DF
100
AcDbEntity
  8
FORMAT
 62
     0
100
AcDbLine
 10
0.0
 20
0.0
 30
0.0
 11
0.0
 21
2.5
 31
0.0
  0
LINE
  5
E3
330
DF
100
AcDbEntity
  8
FORMAT
 62
     0
100
AcDbLine
 10
0.0
 20
0.0
 30
0.0
 11
-2.5
 21
0.0
 31
0.0
  0
LINE
  5
E4
330
DF
100
AcDbEntity
  8
FORMAT
 62
     0
100
AcDbLine
 10
0.0
 20
0.0
 30
0.0
 11
0.0
 21
-2.5
 31
0.0
  0
LINE
  5
E5
330
DF
100
AcDbEntity
  8
FORMAT
 62
     0
100
AcDbLine
 10
0.0
 20
0.0
 30
0.0
 11
2.5
 21
0.0
 31
0.0
  0
LINE
  5
E6
330
DF
100
AcDbEntity
  8
FORMAT
 62
     0
100
AcDbLine
 10
0.0
 20
5.0
 30
0.0
 11
0.0
 21
12.5
 31
0.0
  0
LINE
  5
E7
330
DF
100
AcDbEntity
  8
FORMAT
 62
     0
100
AcDbLine
 10
-5.0
 20
0.0
 30
0.0
 11
-12.5
 21
0.0
 31
0.0
  0
LINE
  5
E8
330
DF
100
AcDbEntity
  8
FORMAT
 62
     0
100
AcDbLine
 10
0.0
 20
-5.0
 30
0.0
 11
0.0
 21
-12.5
 31
0.0
  0
LINE
  5
E9
330
DF
100
AcDbEntity
  8
FORMAT
 62
     0
100
AcDbLine
 10
5.0
 20
0.0
 30
0.0
 11
12.5
 21
0.0
 31
0.0
  0
ENDBLK
  5
E1
330
DF
100
AcDbEntity
  8
0
100
AcDbBlockEnd
  0
BLOCK
  5
EC
330
EB
100
AcDbEntity
  8
0
100
AcDbBlockBegin
  2
SW_CENTERMARKSYMBOL_7
 70
     0
 10
0.0
 20
0.0
 30
0.0
  3
SW_CENTERMARKSYMBOL_7
  1

  0
LINE
  5
EE
330
EB
100
AcDbEntity
  8
FORMAT
 62
     0
100
AcDbLine
 10
0.0
 20
0.0
 30
0.0
 11
0.0
 21
2.5
 31
0.0
  0
LINE
  5
EF
330
EB
100
AcDbEntity
  8
FORMAT
 62
     0
100
AcDbLine
 10
0.0
 20
0.0
 30
0.0
 11
-2.5
 21
0.0
 31
0.0
  0
LINE
  5
F0
330
EB
100
AcDbEntity
  8
FORMAT
 62
     0
100
AcDbLine
 10
0.0
 20
0.0
 30
0.0
 11
0.0
 21
-2.5
 31
0.0
  0
LINE
  5
F1
330
EB
100
AcDbEntity
  8
FORMAT
 62
     0
100
AcDbLine
 10
0.0
 20
0.0
 30
0.0
 11
2.5
 21
0.0
 31
0.0
  0
LINE
  5
F2
330
EB
100
AcDbEntity
  8
FORMAT
 62
     0
100
AcDbLine
 10
0.0
 20
5.0
 30
0.0
 11
0.0
 21
12.5
 31
0.0
  0
LINE
  5
F3
330
EB
100
AcDbEntity
  8
FORMAT
 62
     0
100
AcDbLine
 10
-5.0
 20
0.0
 30
0.0
 11
-12.5
 21
0.0
 31
0.0
  0
LINE
  5
F4
330
EB
100
AcDbEntity
  8
FORMAT
 62
     0
100
AcDbLine
 10
0.0
 20
-5.0
 30
0.0
 11
0.0
 21
-12.5
 31
0.0
  0
LINE
  5
F5
330
EB
100
AcDbEntity
  8
FORMAT
 62
     0
100
AcDbLine
 10
5.0
 20
0.0
 30
0.0
 11
12.5
 21
0.0
 31
0.0
  0
ENDBLK
  5
ED
330
EB
100
AcDbEntity
  8
0
100
AcDbBlockEnd
  0
ENDSEC
  0
SECTION
  2
ENTITIES
  0
CIRCLE
  5
83
330
1F
100
AcDbEntity
  8
0
  6
Continuous
 62
     7
370
    25
100
AcDbCircle
 10
30.1105938204
 20
115.6909958732
 30
0.0
 40
9.999999999999996
  0
CIRCLE
  5
84
330
1F
100
AcDbEntity
  8
0
  6
Continuous
 62
     7
370
    25
100
AcDbCircle
 10
209.356805845
 20
41.4447838486
 30
0.0
 40
9.999999999999972
  0
CIRCLE
  5
85
330
1F
100
AcDbEntity
  8
0
  6
Continuous
 62
     7
370
    25
100
AcDbCircle
 10
209.356805845
 20
189.9372078978
 30
0.0
 40
10.0
  0
CIRCLE
  5
86
330
1F
100
AcDbEntity
  8
0
  6
Continuous
 62
     7
370
    25
100
AcDbCircle
 10
135.1105938204
 20
220.6909958732
 30
0.0
 40
9.999999999999972
  0
CIRCLE
  5
87
330
1F
100
AcDbEntity
  8
0
  6
Continuous
 62
     7
370
    25
100
AcDbCircle
 10
135.1105938204
 20
115.6909958732
 30
0.0
 40
125.0
  0
CIRCLE
  5
88
330
1F
100
AcDbEntity
  8
0
  6
Continuous
 62
     7
370
    25
100
AcDbCircle
 10
135.1105938204
 20
115.6909958732
 30
0.0
 40
79.99999999999997
  0
CIRCLE
  5
89
330
1F
100
AcDbEntity
  8
0
  6
Continuous
 62
     7
370
    25
100
AcDbCircle
 10
135.1105938204
 20
10.6909958732
 30
0.0
 40
10.0
  0
CIRCLE
  5
8A
330
1F
100
AcDbEntity
  8
0
  6
Continuous
 62
     7
370
    25
100
AcDbCircle
 10
240.1105938204
 20
115.6909958732
 30
0.0
 40
10.0
  0
CIRCLE
  5
8B
330
1F
100
AcDbEntity
  8
0
  6
Continuous
 62
     7
370
    25
100
AcDbCircle
 10
60.8643817958
 20
41.4447838486
 30
0.0
 40
10.00000000000001
  0
CIRCLE
  5
8C
330
1F
100
AcDbEntity
  8
0
  6
Continuous
 62
     7
370
    25
100
AcDbCircle
 10
60.8643817958
 20
189.9372078978
 30
0.0
 40
10.00000000000001
  0
CIRCLE
  5
8D
330
1F
100
AcDbEntity
  8
0
  6
Continuous
 62
     7
370
    25
100
AcDbCircle
 10
135.1105938204
 20
10.6909958732
 30
0.0
 40
9.0
  0
CIRCLE
  5
8E
330
1F
100
AcDbEntity
  8
0
  6
Continuous
 62
     7
370
    25
100
AcDbCircle
 10
135.1105938204
 20
115.6909958732
 30
0.0
 40
78.99999999999997
  0
CIRCLE
  5
8F
330
1F
100
AcDbEntity
  8
0
  6
Continuous
 62
     7
370
    25
100
AcDbCircle
 10
135.1105938204
 20
115.6909958732
 30
0.0
 40
126.0
  0
CIRCLE
  5
90
330
1F
100
AcDbEntity
  8
0
  6
Continuous
 62
     7
370
    25
100
AcDbCircle
 10
135.1105938204
 20
220.6909958732
 30
0.0
 40
9.0
  0
CIRCLE
  5
91
330
1F
100
AcDbEntity
  8
0
  6
Continuous
 62
     7
370
    25
100
AcDbCircle
 10
209.356805845
 20
189.9372078978
 30
0.0
 40
8.999999999999972
  0
CIRCLE
  5
92
330
1F
100
AcDbEntity
  8
0
  6
Continuous
 62
     7
370
    25
100
AcDbCircle
 10
60.8643817958
 20
189.9372078978
 30
0.0
 40
9.000000000000007
  0
CIRCLE
  5
93
330
1F
100
AcDbEntity
  8
0
  6
Continuous
 62
     7
370
    25
100
AcDbCircle
 10
60.8643817958
 20
41.4447838486
 30
0.0
 40
9.000000000000007
  0
CIRCLE
  5
94
330
1F
100
AcDbEntity
  8
0
  6
Continuous
 62
     7
370
    25
100
AcDbCircle
 10
240.1105938204
 20
115.6909958732
 30
0.0
 40
9.0
  0
CIRCLE
  5
95
330
1F
100
AcDbEntity
  8
0
  6
Continuous
 62
     7
370
    25
100
AcDbCircle
 10
30.1105938204
 20
115.6909958732
 30
0.0
 40
8.999999999999996
  0
CIRCLE
  5
96
330
1F
100
AcDbEntity
  8
0
  6
Continuous
 62
     7
370
    25
100
AcDbCircle
 10
209.356805845
 20
41.4447838486
 30
0.0
 40
8.999999999999972
  0
INSERT
  5
A2
330
1F
100
AcDbEntity
  8
FORMAT
 62
     7
100
AcDbBlockReference
  2
SW_CENTERMARKSYMBOL_0
 10
135.1105938204
 20
115.6909958732
 30
0.0
  0
INSERT
  5
AE
330
1F
100
AcDbEntity
  8
FORMAT
 62
     7
100
AcDbBlockReference
  2
SW_CENTERMARKSYMBOL_1
 10
135.1105938204
 20
220.6909958732
 30
0.0
  0
INSERT
  5
BA
330
1F
100
AcDbEntity
  8
FORMAT
 62
     7
100
AcDbBlockReference
  2
SW_CENTERMARKSYMBOL_2
 10
209.356805845
 20
189.9372078978
 30
0.0
  0
INSERT
  5
C6
330
1F
100
AcDbEntity
  8
FORMAT
 62
     7
100
AcDbBlockReference
  2
SW_CENTERMARKSYMBOL_3
 10
240.1105938204
 20
115.6909958732
 30
0.0
  0
INSERT
  5
D2
330
1F
100
AcDbEntity
  8
FORMAT
 62
     7
100
AcDbBlockReference
  2
SW_CENTERMARKSYMBOL_4
 10
209.356805845
 20
41.4447838486
 30
0.0
  0
INSERT
  5
DE
330
1F
100
AcDbEntity
  8
FORMAT
 62
     7
100
AcDbBlockReference
  2
SW_CENTERMARKSYMBOL_5
 10
60.8643817958
 20
189.9372078978
 30
0.0
  0
INSERT
  5
EA
330
1F
100
AcDbEntity
  8
FORMAT
 62
     7
100
AcDbBlockReference
  2
SW_CENTERMARKSYMBOL_6
 10
30.1105938204
 20
115.6909958732
 30
0.0
  0
INSERT
  5
F6
330
1F
100
AcDbEntity
  8
FORMAT
 62
     7
100
AcDbBlockReference
  2
SW_CENTERMARKSYMBOL_7
 10
60.8643817958
 20
41.4447838486
 30
0.0
  0
LINE
  5
F7
330
1F
100
AcDbEntity
  8
0
  6
Continuous
 62
     7
370
    25
100
AcDbLine
 10
-122.3584588327
 20
241.6909958732
 30
0.0
 11
-144.3584588327
 21
241.6909958732
 31
0.0
  0
LINE
  5
F8
330
1F
100
AcDbEntity
  8
0
  6
Continuous
 62
     7
370
    25
100
AcDbLine
 10
-144.3584588327
 20
-10.3090041268
 30
0.0
 11
-122.3584588327
 21
-10.3090041268
 31
0.0
  0
ARC
  5
F9
330
1F
100
AcDbEntity
  8
0
  6
Continuous
 62
     7
370
    25
100
AcDbCircle
 10
-122.3584588327
 20
-9.3090041268
 30
0.0
 40
1.000000000000002
100
AcDbArc
 50
270.0
 51
0.0
  0
ARC
  5
FA
330
1F
100
AcDbEntity
  8
0
  6
Continuous
 62
     7
370
    25
100
AcDbCircle
 10
-122.3584588327
 20
240.6909958732
 30
0.0
 40
1.0
100
AcDbArc
 50
0.0
 51
90.0
  0
ARC
  5
FB
330
1F
100
AcDbEntity
  8
0
  6
Continuous
 62
     7
370
    25
100
AcDbCircle
 10
-144.3584588327
 20
-9.3090041268
 30
0.0
 40
1.000000000000002
100
AcDbArc
 50
180.0
 51
270.0
  0
ARC
  5
FC
330
1F
100
AcDbEntity
  8
0
  6
Continuous
 62
     7
370
    25
100
AcDbCircle
 10
-144.3584588327
 20
240.6909958732
 30
0.0
 40
1.0
100
AcDbArc
 50
90.0
 51
180.0
  0
LINE
  5
FD
330
1F
100
AcDbEntity
  8
0
  6
Continuous
 62
     7
370
    25
100
AcDbLine
 10
-121.3584588327
 20
115.6909958732
 30
0.0
 11
-121.3584588327
 21
-9.3090041268
 31
0.0
  0
LINE
  5
FE
330
1F
100
AcDbEntity
  8
0
  6
Continuous
 62
     7
370
    25
100
AcDbLine
 10
-121.3584588327
 20
240.6909958732
 30
0.0
 11
-121.3584588327
 21
115.6909958732
 31
0.0
  0
LINE
  5
FF
330
1F
100
AcDbEntity
  8
0
  6
Continuous
 62
     7
370
    25
100
AcDbLine
 10
-145.3584588327
 20
115.6909958732
 30
0.0
 11
-145.3584588327
 21
240.6909958732
 31
0.0
  0
LINE
  5
100
330
1F
100
AcDbEntity
  8
0
  6
Continuous
 62
     7
370
    25
100
AcDbLine
 10
-145.3584588327
 20
-9.3090041268
 30
0.0
 11
-145.3584588327
 21
115.6909958732
 31
0.0
  0
LINE
  5
101
330
1F
100
AcDbEntity
  8
0
  6
Continuous
 62
     1
370
    25
100
AcDbLine
 10
-144.3584588327
 20
115.6909958732
 30
0.0
 11
-144.3584588327
 21
-10.3090041268
 31
0.0
  0
LINE
  5
102
330
1F
100
AcDbEntity
  8
0
  6
Continuous
 62
     1
370
    25
100
AcDbLine
 10
-144.3584588327
 20
241.6909958732
 30
0.0
 11
-144.3584588327
 21
115.6909958732
 31
0.0
  0
LINE
  5
103
330
1F
100
AcDbEntity
  8
0
  6
Continuous
 62
     1
370
    25
100
AcDbLine
 10
-122.3584588327
 20
115.6909958732
 30
0.0
 11
-122.3584588327
 21
241.6909958732
 31
0.0
  0
LINE
  5
104
330
1F
100
AcDbEntity
  8
0
  6
Continuous
 62
     1
370
    25
100
AcDbLine
 10
-122.3584588327
 20
-10.3090041268
 30
0.0
 11
-122.3584588327
 21
115.6909958732
 31
0.0
  0
LINE
  5
105
330
1F
100
AcDbEntity
  8
0
  6
Continuous
 62
     7
370
    25
100
AcDbLine
 10
369.0601002095
 20
-10.3090041268
 30
0.0
 11
391.0601002095
 21
-10.3090041268
 31
0.0
  0
LINE
  5
106
330
1F
100
AcDbEntity
  8
0
  6
Continuous
 62
     7
370
    25
100
AcDbLine
 10
391.0601002095
 20
241.6909958732
 30
0.0
 11
369.0601002095
 21
241.6909958732
 31
0.0
  0
ARC
  5
107
330
1F
100
AcDbEntity
  8
0
  6
Continuous
 62
     7
370
    25
100
AcDbCircle
 10
369.0601002095
 20
240.6909958732
 30
0.0
 40
1.0
100
AcDbArc
 50
90.0
 51
180.0
  0
ARC
  5
108
330
1F
100
AcDbEntity
  8
0
  6
Continuous
 62
     7
370
    25
100
AcDbCircle
 10
369.0601002095
 20
-9.3090041268
 30
0.0
 40
1.000000000000002
100
AcDbArc
 50
180.0
 51
270.0
  0
ARC
  5
109
330
1F
100
AcDbEntity
  8
0
  6
Continuous
 62
     7
370
    25
100
AcDbCircle
 10
391.0601002095
 20
240.6909958732
 30
0.0
 40
1.0
100
AcDbArc
 50
0.0
 51
90.0
  0
ARC
  5
10A
330
1F
100
AcDbEntity
  8
0
  6
Continuous
 62
     7
370
    25
100
AcDbCircle
 10
391.0601002095
 20
-9.3090041268
 30
0.0
 40
1.000000000000002
100
AcDbArc
 50
270.0
 51
0.0
  0
LINE
  5
10B
330
1F
100
AcDbEntity
  8
0
  6
Continuous
 62
     7
370
    25
100
AcDbLine
 10
368.0601002095
 20
-9.3090041268
 30
0.0
 11
368.0601002095
 21
240.6909958732
 31
0.0
  0
LINE
  5
10C
330
1F
100
AcDbEntity
  8
0
  6
Continuous
 62
     7
370
    25
100
AcDbLine
 10
392.0601002095
 20
240.6909958732
 30
0.0
 11
392.0601002095
 21
-9.3090041268
 31
0.0
  0
LINE
  5
10D
330
1F
100
AcDbEntity
  8
0
  6
Continuous
 62
     1
370
    25
100
AcDbLine
 10
391.0601002095
 20
-10.3090041268
 30
0.0
 11
391.0601002095
 21
241.6909958732
 31
0.0
  0
LINE
  5
10E
330
1F
100
AcDbEntity
  8
0
  6
Continuous
 62
     1
370
    25
100
AcDbLine
 10
369.0601002095
 20
241.6909958732
 30
0.0
 11
369.0601002095
 21
-10.3090041268
 31
0.0
  0
LINE
  5
10F
330
1F
100
AcDbEntity
  8
0
  6
Continuous
 62
     7
370
    25
100
AcDbLine
 10
261.1105938204
 20
345.7986099767
 30
0.0
 11
261.1105938204
 21
367.7986099767
 31
0.0
  0
LINE
  5
110
330
1F
100
AcDbEntity
  8
0
  6
Continuous
 62
     7
370
    25
100
AcDbLine
 10
9.1105938204
 20
367.7986099767
 30
0.0
 11
9.1105938204
 21
345.7986099767
 31
0.0
  0
ARC
  5
111
330
1F
100
AcDbEntity
  8
0
  6
Continuous
 62
     7
370
    25
100
AcDbCircle
 10
10.1105938204
 20
345.7986099767
 30
0.0
 40
1.000000000000057
100
AcDbArc
 50
180.0
 51
270.0
  0
ARC
  5
112
330
1F
100
AcDbEntity
  8
0
  6
Continuous
 62
     7
370
    25
100
AcDbCircle
 10
260.1105938204
 20
345.7986099767
 30
0.0
 40
1.000000000000057
100
AcDbArc
 50
270.0
 51
0.0
  0
ARC
  5
113
330
1F
100
AcDbEntity
  8
0
  6
Continuous
 62
     7
370
    25
100
AcDbCircle
 10
10.1105938204
 20
367.7986099767
 30
0.0
 40
1.0
100
AcDbArc
 50
90.0
 51
180.0
  0
ARC
  5
114
330
1F
100
AcDbEntity
  8
0
  6
Continuous
 62
     7
370
    25
100
AcDbCircle
 10
260.1105938204
 20
367.7986099767
 30
0.0
 40
1.0
100
AcDbArc
 50
0.0
 51
90.0
  0
LINE
  5
115
330
1F
100
AcDbEntity
  8
0
  6
Continuous
 62
     7
370
    25
100
AcDbLine
 10
260.1105938204
 20
344.7986099767
 30
0.0
 11
10.1105938204
 21
344.7986099767
 31
0.0
  0
LINE
  5
116
330
1F
100
AcDbEntity
  8
0
  6
Continuous
 62
     7
370
    25
100
AcDbLine
 10
10.1105938206
 20
368.7986099767
 30
0.0
 11
260.1105938204
 21
368.7986099767
 31
0.0
  0
LINE
  5
117
330
1F
100
AcDbEntity
  8
0
  6
Continuous
 62
     1
370
    25
100
AcDbLine
 10
261.1105938204
 20
367.7986099767
 30
0.0
 11
9.1105938204
 21
367.7986099767
 31
0.0
  0
LINE
  5
118
330
1F
100
AcDbEntity
  8
0
  6
Continuous
 62
     1
370
    25
100
AcDbLine
 10
9.1105938204
 20
345.7986099767
 30
0.0
 11
261.1105938204
 21
345.7986099767
 31
0.0
  0
LINE
  5
119
330
1F
100
AcDbEntity
  8
0
  6
Continuous
 62
     7
370
    25
100
AcDbLine
 10
9.1105938204
 20
-170.3660997267
 30
0.0
 11
9.1105938204
 21
-192.3660997267
 31
0.0
  0
LINE
  5
11A
330
1F
100
AcDbEntity
  8
0
  6
Continuous
 62
     7
370
    25
100
AcDbLine
 10
261.1105938204
 20
-192.3660997267
 30
0.0
 11
261.1105938204
 21
-170.3660997267
 31
0.0
  0
ARC
  5
11B
330
1F
100
AcDbEntity
  8
0
  6
Continuous
 62
     7
370
    25
100
AcDbCircle
 10
260.1105938204
 20
-170.3660997267
 30
0.0
 40
1.0
100
AcDbArc
 50
0.0
 51
90.0
  0
ARC
  5
11C
330
1F
100
AcDbEntity
  8
0
  6
Continuous
 62
     7
370
    25
100
AcDbCircle
 10
10.1105938204
 20
-170.3660997267
 30
0.0
 40
1.0
100
AcDbArc
 50
90.0
 51
180.0
  0
ARC
  5
11D
330
1F
100
AcDbEntity
  8
0
  6
Continuous
 62
     7
370
    25
100
AcDbCircle
 10
260.1105938204
 20
-192.3660997267
 30
0.0
 40
1.0
100
AcDbArc
 50
270.0
 51
0.0
  0
ARC
  5
11E
330
1F
100
AcDbEntity
  8
0
  6
Continuous
 62
     7
370
    25
100
AcDbCircle
 10
10.1105938204
 20
-192.3660997267
 30
0.0
 40
1.0
100
AcDbArc
 50
180.0
 51
270.0
  0
LINE
  5
11F
330
1F
100
AcDbEntity
  8
0
  6
Continuous
 62
     7
370
    25
100
AcDbLine
 10
10.1105938206
 20
-169.3660997267
 30
0.0
 11
260.1105938204
 21
-169.3660997267
 31
0.0
  0
LINE
  5
120
330
1F
100
AcDbEntity
  8
0
  6
Continuous
 62
     7
370
    25
100
AcDbLine
 10
260.1105938204
 20
-193.3660997267
 30
0.0
 11
10.1105938204
 21
-193.3660997267
 31
0.0
  0
LINE
  5
121
330
1F
100
AcDbEntity
  8
0
  6
Continuous
 62
     1
370
    25
100
AcDbLine
 10
9.1105938204
 20
-192.3660997267
 30
0.0
 11
261.1105938204
 21
-192.3660997267
 31
0.0
  0
LINE
  5
122
330
1F
100
AcDbEntity
  8
0
  6
Continuous
 62
     1
370
    25
100
AcDbLine
 10
261.1105938204
 20
-170.3660997267
 30
0.0
 11
9.1105938204
 21
-170.3660997267
 31
0.0
  0
SPLINE
  5
123
330
1F
100
AcDbEntity
  8
0
  6
Continuous
 62
     7
370
    25
100
AcDbSpline
210
0.0
220
0.0
230
1.0
 70
     8
 71
     3
 72
    75
 73
    71
 74
     0
 42
0.00000001
 43
0.00000001
 40
0.0
 40
0.0
 40
0.0
 40
0.0
 40
0.0085697457351198
 40
0.0234736954543875
 40
0.0383907200172049
 40
0.0533214641192816
 40
0.0682657358221228
 40
0.0832226774935662
 40
0.0981909671580731
 40
0.1131690159054354
 40
0.1281551377771738
 40
0.1431476803207614
 40
0.1581451137732259
 40
0.1731460832919319
 40
0.1881494318346082
 40
0.2031542019870489
 40
0.2181596242176816
 40
0.233164968760009
 40
0.2481697861831395
 40
0.263173780793649
 40
0.2781767514288141
 40
0.2931785730223525
 40
0.3081791808572165
 40
0.3231785574341602
 40
0.3381767217309574
 40
0.3531737205570822
 40
0.3681696216920228
 40
0.3831645085094345
 40
0.3981584758186225
 40
0.4131516266901045
 40
0.4281440700675205
 40
0.4431359190011037
 40
0.4581272893667271
 40
0.4731182989588907
 40
0.4881090668657312
 40
0.5030997130497422
 40
0.5180903580695486
 40
0.5330810966063253
 40
0.5480720358749842
 40
0.563063297237303
 40
0.5780550019673044
 40
0.5930472709287751
 40
0.6080402240916551
 40
0.6230339798160305
 40
0.6380286538211735
 40
0.6530243577395997
 40
0.668021197134196
 40
0.6830192688297796
 40
0.6980186573790413
 40
0.7130194304473763
 40
0.7280216328633229
 40
0.7430252790448737
 40
0.7580303434832315
 40
0.7730367489557785
 40
0.7880443521664079
 40
0.8030529266003231
 40
0.8180621425695969
 40
0.8330714455360455
 40
0.8480800931464005
 40
0.8630872450358463
 40
0.8780918607270203
 40
0.8930926895552892
 40
0.9080882763348516
 40
0.9230769908541546
 40
0.9380570898936392
 40
0.9530268192053423
 40
0.9679845587590494
 40
0.9829290068259876
 40
0.9978593874028375
 40
0.9999999999999999
 40
0.9999999999999999
 40
0.9999999999999999
 40
0.9999999999999999
 10
448.8254854738308
 20
-40.69275448776537
 30
0.0
 10
448.2386792223874
 20
-40.55081012220398
 30
0.0
 10
446.6313373405081
 20
-40.16200526011802
 30
0.0
 10
443.9078186677989
 20
-39.74802194567101
 30
0.0
 10
440.6696341476507
 20
-39.43218038261578
 30
0.0
 10
437.3518555868839
 20
-39.32688676688378
 30
0.0
 10
433.9653595202038
 20
-39.42084570268808
 30
0.0
 10
430.5147550383871
 20
-39.7171884052568
 30
0.0
 10
427.0065638701117
 20
-40.21467691412764
 30
0.0
 10
423.446982516936
 20
-40.91273236414461
 30
0.0
 10
419.8424381417219
 20
-41.81008407409034
 30
0.0
 10
416.199398394612
 20
-42.90514026281167
 30
0.0
 10
412.5243875680441
 20
-44.19590365960764
 30
0.0
 10
408.8239544331105
 20
-45.68001262555727
 30
0.0
 10
405.1046595267561
 20
-47.3547495132995
 30
0.0
 10
401.3730624563237
 20
-49.2170570462435
 30
0.0
 10
397.6357236240496
 20
-51.26354507687858
 30
0.0
 10
393.8991854469275
 20
-53.49050614066038
 30
0.0
 10
390.1699627645054
 20
-55.89392763752618
 30
0.0
 10
386.4545260906656
 20
-58.46950971307505
 30
0.0
 10
382.7593065662622
 20
-61.21266780106088
 30
0.0
 10
379.0906917716823
 20
-64.11853861490002
 30
0.0
 10
375.4550178153098
 20
-67.18198800478483
 30
0.0
 10
371.8585609071359
 20
-70.39761898030008
 30
0.0
 10
368.3075284863611
 20
-73.75978003836346
 30
0.0
 10
364.808049990341
 20
-77.26257389129754
 30
0.0
 10
361.3661673579904
 20
-80.89986665331071
 30
0.0
 10
357.9878253586289
 20
-84.66529751573074
 30
0.0
 10
354.6788618308848
 20
-88.55228892061555
 30
0.0
 10
351.4449979080085
 20
-92.55405722743942
 30
0.0
 10
348.2918282972661
 20
-96.66362385707941
 30
0.0
 10
345.2248116727881
 20
-100.8738268901376
 30
0.0
 10
342.2492612337607
 20
-105.1773330918193
 30
0.0
 10
339.3703354733556
 20
-109.5666503323554
 30
0.0
 10
336.5930291981974
 20
-114.0341403699509
 30
0.0
 10
333.9221648337578
 20
-118.5720319613535
 30
0.0
 10
331.3623855422463
 20
-123.1724315772849
 30
0.0
 10
328.918146152394
 20
-127.8273381552638
 30
0.0
 10
326.5937045296122
 20
-132.5286584362441
 30
0.0
 10
324.3931130887083
 20
-137.2682239179305
 30
0.0
 10
322.3202128414128
 20
-142.0378038994599
 30
0.0
 10
320.3786277436057
 20
-146.8291183355336
 30
0.0
 10
318.5717587313545
 20
-151.6338521974826
 30
0.0
 10
316.9027782221723
 20
-156.4436698434725
 30
0.0
 10
315.3746250932862
 20
-161.2502293463845
 30
0.0
 10
313.9900001443935
 20
-166.0451967238659
 30
0.0
 10
312.7513620468912
 20
-170.8202600099306
 30
0.0
 10
311.6609237741356
 20
-175.5671431018077
 30
0.0
 10
310.7206494972779
 20
-180.2776193097132
 30
0.0
 10
309.9322519178408
 20
-184.9435245313223
 30
0.0
 10
309.2971899905022
 20
-189.5567699678734
 30
0.0
 10
308.8166669666288
 20
-194.1093542963185
 30
0.0
 10
308.4916286598675
 20
-198.5933752143026
 30
0.0
 10
308.322761799856
 20
-203.0010402839479
 30
0.0
 10
308.3104922962089
 20
-207.3246770256352
 30
0.0
 10
308.4549831956978
 20
-211.5567422428317
 30
0.0
 10
308.7561313800263
 20
-215.6898215574661
 30
0.0
 10
309.213561823164
 20
-219.716635288945
 30
0.0
 10
309.82662113999
 20
-223.6300552130635
 30
0.0
 10
310.5943731012648
 20
-227.4231205344567
 30
0.0
 10
311.5155899368727
 20
-231.0890530447945
 30
0.0
 10
312.5887517535795
 20
-234.6212489688894
 30
0.0
 10
313.8120014549708
 20
-238.0133427702865
 30
0.0
 10
315.183267166023
 20
-241.2590468879927
 30
0.0
 10
316.6997648138976
 20
-244.3528484483491
 30
0.0
 10
318.3598263891523
 20
-247.2875344231507
 30
0.0
 10
320.1560841663808
 20
-250.0635634815276
 30
0.0
 10
322.1009159841449
 20
-252.654293166809
 30
0.0
 10
323.5524630554249
 20
-254.4279648263311
 30
0.0
 10
324.3926558413867
 20
-255.2838622055634
 30
0.0
 10
324.4980115897806
 20
-255.391187227206
 30
0.0
  0
LINE
  5
124
330
1F
100
AcDbEntity
  8
0
  6
Continuous
 62
     7
370
    25
100
AcDbLine
 10
476.2622530048
 20
-54.3296660603
 30
0.0
 11
460.7059038187
 21
-45.3491768302
 31
0.0
  0
LINE
  5
125
330
1F
100
AcDbEntity
  8
0
  6
Continuous
 62
     7
370
    25
100
AcDbLine
 10
334.7161435066
 20
-263.5934901502
 30
0.0
 11
350.2724926927
 21
-272.5739793802
 31
0.0
  0
SPLINE
  5
126
330
1F
100
AcDbEntity
  8
0
  6
Continuous
 62
     7
370
    25
100
AcDbSpline
210
0.0
220
0.0
230
1.0
 70
     8
 71
     3
 72
    60
 73
    56
 74
     0
 42
0.00000001
 43
0.00000001
 40
0.0
 40
0.0
 40
0.0
 40
0.0
 40
0.0085026138122718
 40
0.0275756410041558
 40
0.0466652473564547
 40
0.0657723794872549
 40
0.0848968946760273
 40
0.1040377726468377
 40
0.1231933714483556
 40
0.1423616823125185
 40
0.1615405517248037
 40
0.1807278540862694
 40
0.1999216112362273
 40
0.2191200638326398
 40
0.2383217040636674
 40
0.2575252803295665
 40
0.2767297836337076
 40
0.2959342783077409
 40
0.3151381460093344
 40
0.3343409941389093
 40
0.3535425537434528
 40
0.3727426555699918
 40
0.3919412095515633
 40
0.4111381876618251
 40
0.4303336098652414
 40
0.4495275327905178
 40
0.4687200407282417
 40
0.487911238568475
 40
0.5071012463302799
 40
0.5262901949797566
 40
0.5454782232789231
 40
0.5646654754503303
 40
0.5838520994798042
 40
0.6030382459114272
 40
0.6222240670147505
 40
0.6414097162247376
 40
0.660595347770317
 40
0.6797810881805507
 40
0.6989670692474197
 40
0.7181534462882307
 40
0.7373403745427807
 40
0.7565280087771348
 40
0.7757165026904306
 40
0.7949060080342442
 40
0.8140966733408681
 40
0.833288642135098
 40
0.8524820504766587
 40
0.8716770236468933
 40
0.8908736717537685
 40
0.9100720839843381
 40
0.92927232118558
 40
0.9484744064073919
 40
0.9676783130032373
 40
0.9868839498679522
 40
1.0
 40
1.0
 40
1.0
 40
1.0
 10
362.2287291144673
 20
-277.2479230272647
 30
0.0
 10
362.6825635590117
 20
-277.360368038526
 30
0.0
 10
364.1544375020591
 20
-277.7250492214786
 30
0.0
 10
366.7366141002374
 20
-278.1297909941006
 30
0.0
 10
369.9657564964136
 20
-278.4684925146707
 30
0.0
 10
373.2761107520466
 20
-278.5943901758515
 30
0.0
 10
376.6555212618127
 20
-278.5216788610945
 30
0.0
 10
380.0997485313832
 20
-278.246398651103
 30
0.0
 10
383.6021939018011
 20
-277.7699567743364
 30
0.0
 10
387.1566990694458
 20
-277.0928326915279
 30
0.0
 10
390.7568396195012
 20
-276.2162700989063
 30
0.0
 10
394.3961561237607
 20
-275.1418156126188
 30
0.0
 10
398.068127724246
 20
-273.8714280019138
 30
0.0
 10
401.7662077770771
 20
-272.4074306309638
 30
0.0
 10
405.4838362604019
 20
-270.7525048259346
 30
0.0
 10
409.2144530299075
 20
-268.9096729002056
 30
0.0
 10
412.9514975359992
 20
-266.8822906230129
 30
0.0
 10
416.6884248464225
 20
-264.6740329102902
 30
0.0
 10
420.4187169465847
 20
-262.2888809073851
 30
0.0
 10
424.1358982510118
 20
-259.7311049932653
 30
0.0
 10
427.8335334953334
 20
-257.0052601138811
 30
0.0
 10
431.5052301794311
 20
-254.1161807553799
 30
0.0
 10
435.1446464221808
 20
-251.0689730942739
 30
0.0
 10
438.7454993367811
 20
-247.8690069995008
 30
0.0
 10
442.3015738603586
 20
-244.521907741602
 30
0.0
 10
445.8067319518362
 20
-241.0335473098026
 30
0.0
 10
449.2549220650836
 20
-237.4100352753448
 30
0.0
 10
452.6401888059008
 20
-233.6577091681552
 30
0.0
 10
455.9566826874285
 20
-229.7831243553564
 30
0.0
 10
459.198669906732
 20
-225.7930434255904
 30
0.0
 10
462.3605420739848
 20
-221.6944250940066
 30
0.0
 10
465.4368258340467
 20
-217.49441265025
 30
0.0
 10
468.4221923278029
 20
-213.2003219768145
 30
0.0
 10
471.3114664472445
 20
-208.8196291684895
 30
0.0
 10
474.0996358439382
 20
-204.3599577857577
 30
0.0
 10
476.7818596550945
 20
-199.829065776833
 30
0.0
 10
479.3534756543299
 20
-195.2348343569507
 30
0.0
 10
481.810008841213
 20
-190.5852541279059
 30
0.0
 10
484.1471803888916
 20
-185.8884093613196
 30
0.0
 10
486.360915994124
 20
-181.1524615097649
 30
0.0
 10
488.4473522936371
 20
-176.3856352824785
 30
0.0
 10
490.4028423316515
 20
-171.5962062322648
 30
0.0
 10
492.2239615620444
 20
-166.7924864038078
 30
0.0
 10
493.9075134323452
 20
-161.9828099413742
 30
0.0
 10
495.4505343216717
 20
-157.175518831171
 30
0.0
 10
496.8502986295471
 20
-152.3789483702328
 30
0.0
 10
498.1043210087469
 20
-147.6014141504648
 30
0.0
 10
499.2103669598167
 20
-142.8511941717239
 30
0.0
 10
500.1664299487196
 20
-138.1365302369649
 30
0.0
 10
500.9708312917181
 20
-133.4655588227695
 30
0.0
 10
501.6218597637472
 20
-128.8465070061605
 30
0.0
 10
502.1191274168058
 20
-124.2869012611891
 30
0.0
 10
502.4585180418719
 20
-119.7964634150746
 30
0.0
 10
502.6306963522087
 20
-115.843544782582
 30
0.0
 10
502.6484970313192
 20
-113.412732537735
 30
0.0
 10
502.6557204970875
 20
-112.4263157313287
 30
0.0
  0
SPLINE
  5
127
330
1F
100
AcDbEntity
  8
0
  6
Continuous
 62
     7
370
    25
100
AcDbSpline
210
0.0
220
0.0
230
1.0
 70
     8
 71
     3
 72
    22
 73
    18
 74
     0
 42
0.00000001
 43
0.00000001
 40
0.0
 40
0.0
 40
0.0
 40
0.0
 40
0.0363324321425717
 40
0.1053334299123158
 40
0.1743418212043071
 40
0.2433502549788613
 40
0.3123553119827202
 40
0.3813530357916345
 40
0.4503385426439141
 40
0.5193059811396739
 40
0.5882485679180395
 40
0.6571587370580866
 40
0.7260284430482972
 40
0.7948496502385242
 40
0.863615021050399
 40
0.9323187778944745
 40
1.0
 40
1.0
 40
1.0
 40
1.0
 10
502.6557204970875
 20
-112.4263157313287
 30
0.0
 10
502.6513501562982
 20
-111.6713379329136
 30
0.0
 10
502.6386798516125
 20
-109.4825386611595
 30
0.0
 10
502.4979031834046
 20
-105.9297588070232
 30
0.0
 10
502.182062355953
 20
-101.8066320716095
 30
0.0
 10
501.7078604422933
 20
-97.79160061192424
 30
0.0
 10
501.0786841394938
 20
-93.8903868637789
 30
0.0
 10
500.2947776539451
 20
-90.1103286549124
 30
0.0
 10
499.3575904606944
 20
-86.45808291021912
 30
0.0
 10
498.2686329622048
 20
-82.94024753793498
 30
0.0
 10
497.0297700646896
 20
-79.563211459687
 30
0.0
 10
495.6432492224633
 20
-76.33304211827864
 30
0.0
 10
494.1113471171805
 20
-73.25596210099239
 30
0.0
 10
492.4377886119018
 20
-70.33640405096455
 30
0.0
 10
490.6224326216972
 20
-67.5841257213032
 30
0.0
 10
488.6900619697577
 20
-64.99958923223319
 30
0.0
 10
487.2936352957607
 20
-63.42581294921534
 30
0.0
 10
486.6006567536605
 20
-62.64482443438266
 30
0.0
  0
SPLINE
  5
128
330
1F
100
AcDbEntity
  8
0
  6
Continuous
 62
     7
370
    25
100
AcDbSpline
210
0.0
220
0.0
230
1.0
 70
     8
 71
     3
 72
    13
 73
     9
 74
     0
 42
0.00000001
 43
0.00000001
 40
0.0
 40
0.0
 40
0.0
 40
0.0
 40
0.0566364648558019
 40
0.2800062514210048
 40
0.4706799282839375
 40
0.6736541070620968
 40
0.8703766226761983
 40
1.0
 40
1.0
 40
1.0
 40
1.0
 10
454.7184609722314
 20
-177.0207641792032
 30
0.0
 10
454.7730780419289
 20
-177.0464823749889
 30
0.0
 10
455.0431005616703
 20
-177.1736311229484
 30
0.0
 10
455.4028776818921
 20
-177.5580006138722
 30
0.0
 10
455.8183045432103
 20
-178.2028914240721
 30
0.0
 10
456.1064991260248
 20
-179.0093701845648
 30
0.0
 10
456.2601658107843
 20
-179.8686466706183
 30
0.0
 10
456.2758584260076
 20
-180.4684933987395
 30
0.0
 10
456.2820914745255
 20
-180.7067502926006
 30
0.0
  0
SPLINE
  5
129
330
1F
100
AcDbEntity
  8
0
  6
Continuous
 62
     7
370
    25
100
AcDbSpline
210
0.0
220
0.0
230
1.0
 70
     8
 71
     3
 72
    24
 73
    20
 74
     0
 42
0.00000001
 43
0.00000001
 40
0.0
 40
0.0
 40
0.0
 40
0.0
 40
0.033160220908893
 40
0.0968652967602973
 40
0.1608209386106535
 40
0.2250098653764055
 40
0.2893874283113802
 40
0.3538770972802767
 40
0.4183918490362142
 40
0.4828183502924209
 40
0.5470583574402226
 40
0.6110250882083702
 40
0.6746524005522911
 40
0.7379369748266995
 40
0.8010335010162494
 40
0.8642594651048197
 40
0.9285004679863555
 40
0.9954864715916647
 40
1.0
 40
1.0
 40
1.0
 40
1.0
 10
456.2820914745255
 20
-180.7067502926006
 30
0.0
 10
456.2782297846725
 20
-180.8992026372873
 30
0.0
 10
456.2669492888448
 20
-181.4613808426592
 30
0.0
 10
456.1389318019181
 20
-182.4656090530463
 30
0.0
 10
455.8490942058023
 20
-183.7147752676362
 30
0.0
 10
455.4168301878893
 20
-184.9946161758717
 30
0.0
 10
454.8534105761924
 20
-186.2702098513158
 30
0.0
 10
454.1712766819705
 20
-187.5092472133764
 30
0.0
 10
453.3877172626953
 20
-188.679569964024
 30
0.0
 10
452.5233355217625
 20
-189.7512000997624
 30
0.0
 10
451.601822382669
 20
-190.6971338102189
 30
0.0
 10
450.6491933613299
 20
-191.4945367466681
 30
0.0
 10
449.6932969821545
 20
-192.12553677107
 30
0.0
 10
448.7623885019268
 20
-192.5791666708898
 30
0.0
 10
447.8853715225856
 20
-192.8497778944281
 30
0.0
 10
447.0828942203345
 20
-192.9478119332766
 30
0.0
 10
446.380089493955
 20
-192.8614371251757
 30
0.0
 10
445.940575005515
 20
-192.7439810802724
 30
0.0
 10
445.7538388499007
 20
-192.602483105081
 30
0.0
 10
445.742050815497
 20
-192.5935508070259
 30
0.0
  0
SPLINE
  5
12A
330
1F
100
AcDbEntity
  8
0
  6
Continuous
 62
     7
370
    25
100
AcDbSpline
210
0.0
220
0.0
230
1.0
 70
     8
 71
     3
 72
    20
 73
    16
 74
     0
 42
0.00000001
 43
0.00000001
 40
0.0
 40
0.0
 40
0.0
 40
0.0
 40
0.0156705316133578
 40
0.1002460071984892
 40
0.1846635829984395
 40
0.2689139450946069
 40
0.3530049237447595
 40
0.4369557149778743
 40
0.5207911586577382
 40
0.6045372542937796
 40
0.6882182405095469
 40
0.7718550516426096
 40
0.8554647731102943
 40
0.9390607191128821
 40
1.0
 40
1.0
 40
1.0
 40
1.0
 10
442.7254898397854
 20
-90.34210366786091
 30
0.0
 10
442.8341631828114
 20
-90.44452265661536
 30
0.0
 10
443.5293577681682
 20
-91.09970749253938
 30
0.0
 10
444.6907512669021
 20
-92.4820659379409
 30
0.0
 10
446.196425295164
 20
-94.49223456197893
 30
0.0
 10
447.5564288611699
 20
-96.68445553249887
 30
0.0
 10
448.7811691324696
 20
-99.0318925564606
 30
0.0
 10
449.8639084837738
 20
-101.533564784692
 30
0.0
 10
450.802905717907
 20
-104.1812807105231
 30
0.0
 10
451.5955344128352
 20
-106.9683578422854
 30
0.0
 10
452.2394971943741
 20
-109.8874313883746
 30
0.0
 10
452.733801369656
 20
-112.9302454193238
 30
0.0
 10
453.0737503657733
 20
-116.0904906247449
 30
0.0
 10
453.2524223989339
 20
-119.0579583384448
 30
0.0
 10
453.2715159077019
 20
-120.9973276048558
 30
0.0
 10
453.2795661575889
 20
-121.8150090172899
 30
0.0
  0
SPLINE
  5
12B
330
1F
100
AcDbEntity
  8
0
  6
Continuous
 62
     7
370
    25
100
AcDbSpline
210
0.0
220
0.0
230
1.0
 70
     8
 71
     3
 72
    50
 73
    46
 74
     0
 42
0.00000001
 43
0.00000001
 40
0.0
 40
0.0
 40
0.0
 40
0.0
 40
0.0126164466536122
 40
0.0366240182470195
 40
0.0606364750291169
 40
0.0846520961095895
 40
0.1086713982704923
 40
0.1326946012158908
 40
0.156721706640691
 40
0.1807525595285959
 40
0.2047868942897337
 40
0.2288243688309205
 40
0.2528645892447608
 40
0.2769071273389806
 40
0.3009515327882186
 40
0.3249973413119502
 40
0.3490440799752894
 40
0.3730912704719827
 40
0.3971384202312027
 40
0.4211848952307712
 40
0.445230210498598
 40
0.4692738813934106
 40
0.4933154257325201
 40
0.5173543674199607
 40
0.5413902422646748
 40
0.565422606904249
 40
0.5894510520065902
 40
0.6134752212511286
 40
0.6374948379931458
 40
0.6615097419762999
 40
0.6855199389366041
 40
0.7095256663409718
 40
0.7335274786380718
 40
0.7575263549346456
 40
0.7815238303892226
 40
0.805521446465632
 40
0.8295218943694692
 40
0.8535289704384639
 40
0.8775475828168194
 40
0.9015837948974
 40
0.9256447017646566
 40
0.9497380353934187
 40
0.9738713906365393
 40
0.9980510088385538
 40
1.0
 40
1.0
 40
1.0
 40
1.0
 10
453.2795661575889
 20
-121.8150090172899
 30
0.0
 10
453.2752905860236
 20
-122.4103844036272
 30
0.0
 10
453.2628791190452
 20
-124.1386871192574
 30
0.0
 10
453.1247844944406
 20
-127.0672528600703
 30
0.0
 10
452.8147465170142
 20
-130.6183159901568
 30
0.0
 10
452.3494836408937
 20
-134.2379688437407
 30
0.0
 10
451.7327659083211
 20
-137.9143411373581
 30
0.0
 10
450.9654413880447
 20
-141.6375758860912
 30
0.0
 10
450.0496985221902
 20
-145.3971127636342
 30
0.0
 10
448.9879205494087
 20
-149.1824267234609
 30
0.0
 10
447.7829835119924
 20
-152.9828741279511
 30
0.0
 10
446.4381651862672
 20
-156.787776825751
 30
0.0
 10
444.9571565215404
 20
-160.5864413139645
 30
0.0
 10
443.3440441259269
 20
-164.3681942899536
 30
0.0
 10
441.6032992340403
 20
-168.1224129254895
 30
0.0
 10
439.7397637999289
 20
-171.8385557712546
 30
0.0
 10
437.7586363203553
 20
-175.5061927844628
 30
0.0
 10
435.6654570749495
 20
-179.1150343920465
 30
0.0
 10
433.4660967018087
 20
-182.6549538142276
 30
0.0
 10
431.1667360895142
 20
-186.1160238126685
 30
0.0
 10
428.7738486464293
 20
-189.4885456559094
 30
0.0
 10
426.2941772166874
 20
-192.7630829717338
 30
0.0
 10
423.7347201452195
 20
-195.9304816008952
 30
0.0
 10
421.1027120758284
 20
-198.9818963397895
 30
0.0
 10
418.4056040130087
 20
-201.9088172139758
 30
0.0
 10
415.6510425848267
 20
-204.7030952725038
 30
0.0
 10
412.8468484059728
 20
-207.3569678896904
 30
0.0
 10
410.0009933938114
 20
-209.8630835440647
 30
0.0
 10
407.1215768327498
 20
-212.2145260108631
 30
0.0
 10
404.2167999125999
 20
-214.4048378498042
 30
0.0
 10
401.2949383981241
 20
-216.4280429628989
 30
0.0
 10
398.3643129970637
 20
-218.2786678928986
 30
0.0
 10
395.4332570291938
 20
-219.9517611502039
 30
0.0
 10
392.5100807314113
 20
-221.4429101633893
 30
0.0
 10
389.6030611325417
 20
-222.7482400299265
 30
0.0
 10
386.7203853023858
 20
-223.8644389478142
 30
0.0
 10
383.8701077207998
 20
-224.788748984576
 30
0.0
 10
381.0600481043718
 20
-225.5190224608835
 30
0.0
 10
378.2978638904307
 20
-226.0534736161471
 30
0.0
 10
375.5906211257513
 20
-226.391456068711
 30
0.0
 10
372.9462422804238
 20
-226.5303627730075
 30
0.0
 10
370.3679999265998
 20
-226.476966272646
 30
0.0
 10
367.8751439593875
 20
-226.2047284963984
 30
0.0
 10
366.1781640947418
 20
-225.933513121197
 30
0.0
 10
365.3414376110776
 20
-225.6975226131345
 30
0.0
 10
365.2790243192515
 20
-225.6799195555818
 30
0.0
  0
SPLINE
  5
12C
330
1F
100
AcDbEntity
  8
0
  6
Continuous
 62
     7
370
    25
100
AcDbSpline
210
0.0
220
0.0
230
1.0
 70
     8
 71
     3
 72
    60
 73
    56
 74
     0
 42
0.00000001
 43
0.00000001
 40
0.0
 40
0.0
 40
0.0
 40
0.0
 40
0.0178779445874789
 40
0.0372502280846494
 40
0.0565848394395541
 40
0.075885378268925
 40
0.0951572074936667
 40
0.1144062991818568
 40
0.1336384301150317
 40
0.1528587182851603
 40
0.1720714229548924
 40
0.1912799182849115
 40
0.2104867649730928
 40
0.2296934712597045
 40
0.2489013092958549
 40
0.2681112616128953
 40
0.2873239316407
 40
0.3065396360123686
 40
0.3257584788452427
 40
0.3449804097251665
 40
0.3642052679160962
 40
0.3834328153951145
 40
0.4026627610778074
 40
0.4218947782449682
 40
0.4411285168121662
 40
0.4603636117485446
 40
0.4795996886694392
 40
0.4988363674031041
 40
0.5180732641613577
 40
0.5373099361419064
 40
0.5565459237339421
 40
0.5757808389286193
 40
0.5950142945104264
 40
0.6142459061474825
 40
0.6334752958722857
 40
0.6527020975669151
 40
0.6719259652552401
 40
0.6911465852312129
 40
0.7103636933378022
 40
0.7295770990526362
 40
0.7487867184162696
 40
0.7679926182101897
 40
0.7871950740550504
 40
0.8063946450679607
 40
0.8255922670648134
 40
0.8447892423623836
 40
0.8639869872758913
 40
0.8831880315620365
 40
0.9023957341752119
 40
0.9216143674804341
 40
0.9408491108978259
 40
0.9601058816084841
 40
0.9793909149308363
 40
0.9987100153481105
 40
1.0
 40
1.0
 40
1.0
 40
1.0
 10
366.7708126218278
 20
-225.9765163246181
 30
0.0
 10
366.2881694482249
 20
-225.385891139529
 30
0.0
 10
365.2825410767848
 20
-224.1552730027823
 30
0.0
 10
363.9152610395807
 20
-222.0719685411053
 30
0.0
 10
362.6369250356893
 20
-219.7855763565323
 30
0.0
 10
361.5016536894636
 20
-217.3395903591376
 30
0.0
 10
360.5085594109406
 20
-214.7458042211666
 30
0.0
 10
359.6611654980371
 20
-212.0097563111353
 30
0.0
 10
358.9614519882204
 20
-209.1390729994871
 30
0.0
 10
358.4114394906176
 20
-206.1412902498623
 30
0.0
 10
358.0127355273648
 20
-203.0244644079419
 30
0.0
 10
357.7666170976066
 20
-199.7970122998404
 30
0.0
 10
357.6739709294268
 20
-196.4677576839504
 30
0.0
 10
357.7352723204482
 20
-193.0458762696159
 30
0.0
 10
357.9505651776165
 20
-189.5408550337426
 30
0.0
 10
358.3194564125954
 20
-185.9624325938177
 30
0.0
 10
358.8411116650396
 20
-182.3205822604669
 30
0.0
 10
359.5142522206537
 20
-178.6254862326937
 30
0.0
 10
360.3371559227556
 20
-174.8874984804935
 30
0.0
 10
361.3076611252343
 20
-171.1171084966086
 30
0.0
 10
362.4231730145693
 20
-167.3249060901568
 30
0.0
 10
363.6806718063895
 20
-163.5215472055726
 30
0.0
 10
365.0767224486387
 20
-159.7177206868595
 30
0.0
 10
366.6074855700354
 20
-155.9241158806786
 30
0.0
 10
368.26872949048
 20
-152.1513909749494
 30
0.0
 10
370.0558431662972
 20
-148.410141984895
 30
0.0
 10
371.963849982117
 20
-144.7108723182536
 30
0.0
 10
373.9874223269713
 20
-141.0639628718182
 30
0.0
 10
376.1208948157398
 20
-137.4796461466197
 30
0.0
 10
378.3582791548394
 20
-133.9679778693548
 30
0.0
 10
380.6932831897287
 20
-130.5388035484228
 30
0.0
 10
383.1193310059342
 20
-127.2017270714109
 30
0.0
 10
385.6295822938303
 20
-123.9660827423567
 30
0.0
 10
388.2169483195465
 20
-120.8409126263632
 30
0.0
 10
390.874111395757
 20
-117.8349399811584
 30
0.0
 10
393.5935451084754
 20
-114.9565431612376
 30
0.0
 10
396.3675353756555
 20
-112.2137300049778
 30
0.0
 10
399.1882024545118
 20
-109.6141127228462
 30
0.0
 10
402.0475240645945
 20
-107.1648833276655
 30
0.0
 10
404.9373598571473
 20
-104.8727896853405
 30
0.0
 10
407.8494775267766
 20
-102.744112346783
 30
0.0
 10
410.7755809564482
 20
-100.7846423892021
 30
0.0
 10
413.7073407706983
 20
-98.99966083714096
 30
0.0
 10
416.6364279889137
 20
-97.39391984920084
 30
0.0
 10
419.5545441278757
 20
-95.97163157652591
 30
0.0
 10
422.4534384965417
 20
-94.73646173308006
 30
0.0
 10
425.3249643371547
 20
-93.69152357713621
 30
0.0
 10
428.1611587844324
 20
-92.83931652229106
 30
0.0
 10
430.9542092687463
 20
-92.18196093486223
 30
0.0
 10
433.6968660447014
 20
-91.72039377526119
 30
0.0
 10
436.381027420516
 20
-91.45755075927197
 30
0.0
 10
439.00317655469
 20
-91.38668626708315
 30
0.0
 10
441.544105607997
 20
-91.53530933007438
 30
0.0
 10
443.2652064840387
 20
-91.71825541546552
 30
0.0
 10
444.1111978207191
 20
-91.90707039930093
 30
0.0
 10
444.1641509642617
 20
-91.9188888973263
 30
0.0
  0
SPLINE
  5
12D
330
1F
100
AcDbEntity
  8
0
  6
Continuous
 62
     7
370
    25
100
AcDbSpline
210
0.0
220
0.0
230
1.0
 70
     8
 71
     3
 72
    13
 73
     9
 74
     0
 42
0.00000001
 43
0.00000001
 40
0.0
 40
0.0
 40
0.0
 40
0.0
 40
0.0566364648557778
 40
0.2800062514209908
 40
0.4706799282839276
 40
0.6736541070620891
 40
0.8703766226761691
 40
1.0
 40
1.0
 40
1.0
 40
1.0
 10
476.4646729968217
 20
-103.841880947002
 30
0.0
 10
476.5192900665191
 20
-103.8675991427877
 30
0.0
 10
476.7893125862606
 20
-103.9947478907472
 30
0.0
 10
477.1490897064824
 20
-104.379117381671
 30
0.0
 10
477.5645165678006
 20
-105.0240081918709
 30
0.0
 10
477.8527111506151
 20
-105.8304869523636
 30
0.0
 10
478.0063778353747
 20
-106.689763438417
 30
0.0
 10
478.0220704505981
 20
-107.2896101665383
 30
0.0
 10
478.028303499116
 20
-107.5278670603994
 30
0.0
  0
SPLINE
  5
12E
330
1F
100
AcDbEntity
  8
0
  6
Continuous
 62
     7
370
    25
100
AcDbSpline
210
0.0
220
0.0
230
1.0
 70
     8
 71
     3
 72
    24
 73
    20
 74
     0
 42
0.00000001
 43
0.00000001
 40
0.0
 40
0.0
 40
0.0
 40
0.0
 40
0.0331602209088929
 40
0.0968652967602974
 40
0.1608209386106541
 40
0.2250098653764102
 40
0.2893874283113798
 40
0.3538770972802758
 40
0.4183918490362112
 40
0.4828183502924189
 40
0.5470583574402224
 40
0.6110250882083689
 40
0.6746524005522887
 40
0.7379369748266978
 40
0.8010335010162457
 40
0.8642594651048149
 40
0.9285004679863532
 40
0.9954864715916645
 40
1.0
 40
1.0
 40
1.0
 40
1.0
 10
478.028303499116
 20
-107.5278670603994
 30
0.0
 10
478.0244418092629
 20
-107.7203194050862
 30
0.0
 10
478.0131613134351
 20
-108.2824976104581
 30
0.0
 10
477.8851438265085
 20
-109.2867258208452
 30
0.0
 10
477.5953062303927
 20
-110.5358920354351
 30
0.0
 10
477.1630422124796
 20
-111.8157329436706
 30
0.0
 10
476.5996226007828
 20
-113.0913266191146
 30
0.0
 10
475.9174887065609
 20
-114.3303639811753
 30
0.0
 10
475.1339292872857
 20
-115.5006867318228
 30
0.0
 10
474.2695475463529
 20
-116.5723168675613
 30
0.0
 10
473.3480344072594
 20
-117.5182505780178
 30
0.0
 10
472.3954053859204
 20
-118.3156535144669
 30
0.0
 10
471.439509006745
 20
-118.9466535388689
 30
0.0
 10
470.5086005265172
 20
-119.4002834386887
 30
0.0
 10
469.6315835471761
 20
-119.670894662227
 30
0.0
 10
468.829106244925
 20
-119.7689287010755
 30
0.0
 10
468.1263015185455
 20
-119.6825538929745
 30
0.0
 10
467.6867870301053
 20
-119.5650978480715
 30
0.0
 10
467.5000508744911
 20
-119.4235998728799
 30
0.0
 10
467.4882628400873
 20
-119.4146675748248
 30
0.0
  0
SPLINE
  5
12F
330
1F
100
AcDbEntity
  8
0
  6
Continuous
 62
     7
370
    25
100
AcDbSpline
210
0.0
220
0.0
230
1.0
 70
     8
 71
     3
 72
    13
 73
     9
 74
     0
 42
0.00000001
 43
0.00000001
 40
0.0
 40
0.0
 40
0.0
 40
0.0
 40
0.056636464855848
 40
0.2800062514210526
 40
0.4706799282839854
 40
0.6736541070621529
 40
0.870376622676241
 40
1.0
 40
1.0
 40
1.0
 40
1.0
 10
402.2184609722294
 20
-232.4400920656986
 30
0.0
 10
402.273078041927
 20
-232.4658102614843
 30
0.0
 10
402.5431005616685
 20
-232.5929590094439
 30
0.0
 10
402.9028776818902
 20
-232.9773285003677
 30
0.0
 10
403.3183045432084
 20
-233.6222193105678
 30
0.0
 10
403.6064991260229
 20
-234.4286980710604
 30
0.0
 10
403.7601658107824
 20
-235.2879745571138
 30
0.0
 10
403.7758584260057
 20
-235.8878212852349
 30
0.0
 10
403.7820914745236
 20
-236.1260781790959
 30
0.0
  0
SPLINE
  5
130
330
1F
100
AcDbEntity
  8
0
  6
Continuous
 62
     7
370
    25
100
AcDbSpline
210
0.0
220
0.0
230
1.0
 70
     8
 71
     3
 72
    24
 73
    20
 74
     0
 42
0.00000001
 43
0.00000001
 40
0.0
 40
0.0
 40
0.0
 40
0.0
 40
0.033160220908893
 40
0.0968652967603099
 40
0.160820938610666
 40
0.225009865376417
 40
0.2893874283113891
 40
0.3538770972802858
 40
0.4183918490362231
 40
0.4828183502924306
 40
0.5470583574402376
 40
0.6110250882083833
 40
0.6746524005523056
 40
0.7379369748267148
 40
0.801033501016258
 40
0.864259465104826
 40
0.9285004679863677
 40
0.9954864715916707
 40
1.0
 40
1.0
 40
1.0
 40
1.0
 10
403.7820914745236
 20
-236.1260781790959
 30
0.0
 10
403.7782297846705
 20
-236.3185305237827
 30
0.0
 10
403.7669492888429
 20
-236.8807087291546
 30
0.0
 10
403.6389318019161
 20
-237.8849369395419
 30
0.0
 10
403.3490942058003
 20
-239.1341031541318
 30
0.0
 10
402.9168301878872
 20
-240.4139440623673
 30
0.0
 10
402.3534105761904
 20
-241.6895377378113
 30
0.0
 10
401.6712766819684
 20
-242.928575099872
 30
0.0
 10
400.8877172626932
 20
-244.0988978505195
 30
0.0
 10
400.0233355217604
 20
-245.170527986258
 30
0.0
 10
399.1018223826669
 20
-246.1164616967145
 30
0.0
 10
398.1491933613278
 20
-246.9138646331636
 30
0.0
 10
397.1932969821524
 20
-247.5448646575655
 30
0.0
 10
396.2623885019246
 20
-247.9984945573853
 30
0.0
 10
395.3853715225836
 20
-248.2691057809235
 30
0.0
 10
394.5828942203325
 20
-248.367139819772
 30
0.0
 10
393.8800894939531
 20
-248.2807650116711
 30
0.0
 10
393.440575005513
 20
-248.1633089667678
 30
0.0
 10
393.2538388498987
 20
-248.0218109915764
 30
0.0
 10
393.242050815495
 20
-248.0128786935213
 30
0.0
  0
SPLINE
  5
131
330
1F
100
AcDbEntity
  8
0
  6
Continuous
 62
     7
370
    25
100
AcDbSpline
210
0.0
220
0.0
230
1.0
 70
     8
 71
     3
 72
    13
 73
     9
 74
     0
 42
0.00000001
 43
0.00000001
 40
0.0
 40
0.0
 40
0.0
 40
0.0
 40
0.0566364648558373
 40
0.2800062514210313
 40
0.4706799282839729
 40
0.6736541070621512
 40
0.8703766226762415
 40
1.0
 40
1.0
 40
1.0
 40
1.0
 10
454.7184609722364
 20
-55.77063968720156
 30
0.0
 10
454.773078041934
 20
-55.79635788298729
 30
0.0
 10
455.0431005616754
 20
-55.92350663094692
 30
0.0
 10
455.4028776818971
 20
-56.30787612187064
 30
0.0
 10
455.8183045432154
 20
-56.9527669320707
 30
0.0
 10
456.1064991260299
 20
-57.75924569256338
 30
0.0
 10
456.2601658107894
 20
-58.61852217861678
 30
0.0
 10
456.2758584260127
 20
-59.2183689067379
 30
0.0
 10
456.2820914745305
 20
-59.45662580059892
 30
0.0
  0
SPLINE
  5
132
330
1F
100
AcDbEntity
  8
0
  6
Continuous
 62
     7
370
    25
100
AcDbSpline
210
0.0
220
0.0
230
1.0
 70
     8
 71
     3
 72
    24
 73
    20
 74
     0
 42
0.00000001
 43
0.00000001
 40
0.0
 40
0.0
 40
0.0
 40
0.0
 40
0.033160220908893
 40
0.0968652967602975
 40
0.1608209386106536
 40
0.2250098653764097
 40
0.2893874283113795
 40
0.3538770972802753
 40
0.418391849036216
 40
0.4828183502924248
 40
0.5470583574402278
 40
0.6110250882083766
 40
0.6746524005522982
 40
0.7379369748267068
 40
0.8010335010162531
 40
0.864259465104825
 40
0.9285004679863654
 40
0.9954864715916729
 40
1.0
 40
1.0
 40
1.0
 40
1.0
 10
456.2820914745305
 20
-59.45662580059892
 30
0.0
 10
456.2782297846775
 20
-59.64907814528566
 30
0.0
 10
456.2669492888497
 20
-60.21125635065758
 30
0.0
 10
456.1389318019231
 20
-61.21548456104467
 30
0.0
 10
455.8490942058073
 20
-62.46465077563454
 30
0.0
 10
455.4168301878942
 20
-63.74449168387009
 30
0.0
 10
454.8534105761974
 20
-65.02008535931414
 30
0.0
 10
454.1712766819755
 20
-66.25912272137478
 30
0.0
 10
453.3877172627003
 20
-67.42944547202235
 30
0.0
 10
452.5233355217674
 20
-68.50107560776084
 30
0.0
 10
451.601822382674
 20
-69.44700931821735
 30
0.0
 10
450.6491933613348
 20
-70.24441225466649
 30
0.0
 10
449.6932969821595
 20
-70.87541227906846
 30
0.0
 10
448.7623885019317
 20
-71.32904217888819
 30
0.0
 10
447.8853715225906
 20
-71.59965340242653
 30
0.0
 10
447.0828942203395
 20
-71.69768744127497
 30
0.0
 10
446.38008949396
 20
-71.61131263317402
 30
0.0
 10
445.9405750055199
 20
-71.49385658827083
 30
0.0
 10
445.7538388499057
 20
-71.35235861307937
 30
0.0
 10
445.742050815502
 20
-71.34342631502426
 30
0.0
  0
SPLINE
  5
133
330
1F
100
AcDbEntity
  8
0
  6
Continuous
 62
     7
370
    25
100
AcDbSpline
210
0.0
220
0.0
230
1.0
 70
     8
 71
     3
 72
    13
 73
     9
 74
     0
 42
0.00000001
 43
0.00000001
 40
0.0
 40
0.0
 40
0.0
 40
0.0
 40
0.0566364648557772
 40
0.2800062514209814
 40
0.4706799282839206
 40
0.6736541070620982
 40
0.8703766226761817
 40
1.0
 40
1.0
 40
1.0
 40
1.0
 10
349.7184609722294
 20
-237.6359739481807
 30
0.0
 10
349.7730780419269
 20
-237.6616921439664
 30
0.0
 10
350.0431005616683
 20
-237.7888408919259
 30
0.0
 10
350.4028776818901
 20
-238.1732103828496
 30
0.0
 10
350.8183045432084
 20
-238.8181011930496
 30
0.0
 10
351.106499126023
 20
-239.6245799535422
 30
0.0
 10
351.2601658107824
 20
-240.4838564395957
 30
0.0
 10
351.2758584260058
 20
-241.0837031677169
 30
0.0
 10
351.2820914745237
 20
-241.3219600615781
 30
0.0
  0
SPLINE
  5
134
330
1F
100
AcDbEntity
  8
0
  6
Continuous
 62
     7
370
    25
100
AcDbSpline
210
0.0
220
0.0
230
1.0
 70
     8
 71
     3
 72
    24
 73
    20
 74
     0
 42
0.00000001
 43
0.00000001
 40
0.0
 40
0.0
 40
0.0
 40
0.0
 40
0.0331602209088929
 40
0.0968652967602965
 40
0.1608209386106574
 40
0.2250098653764036
 40
0.2893874283113774
 40
0.3538770972802738
 40
0.4183918490362094
 40
0.4828183502924242
 40
0.547058357440225
 40
0.6110250882083718
 40
0.6746524005522914
 40
0.737936974826699
 40
0.801033501016244
 40
0.8642594651048096
 40
0.9285004679863488
 40
0.9954864715916626
 40
1.0
 40
1.0
 40
1.0
 40
1.0
 10
351.2820914745237
 20
-241.3219600615781
 30
0.0
 10
351.2782297846707
 20
-241.5144124062649
 30
0.0
 10
351.2669492888429
 20
-242.0765906116368
 30
0.0
 10
351.1389318019162
 20
-243.0808188220238
 30
0.0
 10
350.8490942058004
 20
-244.3299850366137
 30
0.0
 10
350.4168301878874
 20
-245.6098259448492
 30
0.0
 10
349.8534105761905
 20
-246.8854196202933
 30
0.0
 10
349.1712766819687
 20
-248.1244569823538
 30
0.0
 10
348.3877172626935
 20
-249.2947797330015
 30
0.0
 10
347.5233355217606
 20
-250.36640986874
 30
0.0
 10
346.6018223826671
 20
-251.3123435791965
 30
0.0
 10
345.6491933613281
 20
-252.1097465156457
 30
0.0
 10
344.6932969821527
 20
-252.7407465400475
 30
0.0
 10
343.7623885019249
 20
-253.1943764398674
 30
0.0
 10
342.8853715225839
 20
-253.4649876634057
 30
0.0
 10
342.0828942203328
 20
-253.5630217022541
 30
0.0
 10
341.3800894939532
 20
-253.4766468941533
 30
0.0
 10
340.9405750055132
 20
-253.35919084925
 30
0.0
 10
340.7538388498988
 20
-253.2176928740586
 30
0.0
 10
340.7420508154951
 20
-253.2087605760034
 30
0.0
  0
SPLINE
  5
135
330
1F
100
AcDbEntity
  8
0
  6
Continuous
 62
     7
370
    25
100
AcDbSpline
210
0.0
220
0.0
230
1.0
 70
     8
 71
     3
 72
    13
 73
     9
 74
     0
 42
0.00000001
 43
0.00000001
 40
0.0
 40
0.0
 40
0.0
 40
0.0
 40
0.0566364648558295
 40
0.2800062514210526
 40
0.4706799282839865
 40
0.6736541070621569
 40
0.8703766226762478
 40
1.0
 40
1.0
 40
1.0
 40
1.0
 10
402.2184609722364
 20
-60.96652156968366
 30
0.0
 10
402.273078041934
 20
-60.99223976546941
 30
0.0
 10
402.5431005616755
 20
-61.11938851342895
 30
0.0
 10
402.9028776818972
 20
-61.50375800435276
 30
0.0
 10
403.3183045432154
 20
-62.14864881455283
 30
0.0
 10
403.60649912603
 20
-62.95512757504551
 30
0.0
 10
403.7601658107894
 20
-63.8144040610989
 30
0.0
 10
403.7758584260127
 20
-64.41425078922006
 30
0.0
 10
403.7820914745307
 20
-64.65250768308105
 30
0.0
  0
SPLINE
  5
136
330
1F
100
AcDbEntity
  8
0
  6
Continuous
 62
     7
370
    25
100
AcDbSpline
210
0.0
220
0.0
230
1.0
 70
     8
 71
     3
 72
    24
 73
    20
 74
     0
 42
0.00000001
 43
0.00000001
 40
0.0
 40
0.0
 40
0.0
 40
0.0
 40
0.033160220908893
 40
0.0968652967603099
 40
0.1608209386106661
 40
0.2250098653764171
 40
0.2893874283113891
 40
0.3538770972802859
 40
0.4183918490362232
 40
0.4828183502924308
 40
0.5470583574402377
 40
0.6110250882083834
 40
0.6746524005523058
 40
0.737936974826715
 40
0.8010335010162583
 40
0.8642594651048262
 40
0.928500467986368
 40
0.995486471591671
 40
1.0
 40
1.0
 40
1.0
 40
1.0
 10
403.7820914745307
 20
-64.65250768308105
 30
0.0
 10
403.7782297846776
 20
-64.84496002776778
 30
0.0
 10
403.7669492888498
 20
-65.40713823313979
 30
0.0
 10
403.6389318019231
 20
-66.41136644352693
 30
0.0
 10
403.3490942058073
 20
-67.66053265811692
 30
0.0
 10
402.9168301878942
 20
-68.94037356635239
 30
0.0
 10
402.3534105761974
 20
-70.21596724179639
 30
0.0
 10
401.6712766819755
 20
-71.45500460385709
 30
0.0
 10
400.8877172627003
 20
-72.62532735450459
 30
0.0
 10
400.0233355217674
 20
-73.69695749024308
 30
0.0
 10
399.101822382674
 20
-74.64289120069958
 30
0.0
 10
398.1491933613348
 20
-75.4402941371487
 30
0.0
 10
397.1932969821594
 20
-76.0712941615506
 30
0.0
 10
396.2623885019316
 20
-76.5249240613704
 30
0.0
 10
395.3853715225906
 20
-76.79553528490865
 30
0.0
 10
394.5828942203395
 20
-76.89356932375715
 30
0.0
 10
393.8800894939601
 20
-76.80719451565611
 30
0.0
 10
393.44057500552
 20
-76.68973847075291
 30
0.0
 10
393.2538388499058
 20
-76.54824049556153
 30
0.0
 10
393.242050815502
 20
-76.5393081975064
 30
0.0
  0
SPLINE
  5
137
330
1F
100
AcDbEntity
  8
0
  6
Continuous
 62
     7
370
    25
100
AcDbSpline
210
0.0
220
0.0
230
1.0
 70
     8
 71
     3
 72
    13
 73
     9
 74
     0
 42
0.00000001
 43
0.00000001
 40
0.0
 40
0.0
 40
0.0
 40
0.0
 40
0.056636464855804
 40
0.2800062514210228
 40
0.4706799282839547
 40
0.673654107062113
 40
0.8703766226761899
 40
1.0
 40
1.0
 40
1.0
 40
1.0
 10
327.9722489476441
 20
-189.5647326883802
 30
0.0
 10
328.0268660173415
 20
-189.5904508841659
 30
0.0
 10
328.296888537083
 20
-189.7175996321255
 30
0.0
 10
328.6566656573048
 20
-190.1019691230492
 30
0.0
 10
329.072092518623
 20
-190.7468599332492
 30
0.0
 10
329.3602871014376
 20
-191.5533386937418
 30
0.0
 10
329.5139537861971
 20
-192.4126151797953
 30
0.0
 10
329.5296464014204
 20
-193.0124619079165
 30
0.0
 10
329.5358794499383
 20
-193.2507188017776
 30
0.0
  0
SPLINE
  5
138
330
1F
100
AcDbEntity
  8
0
  6
Continuous
 62
     7
370
    25
100
AcDbSpline
210
0.0
220
0.0
230
1.0
 70
     8
 71
     3
 72
    24
 73
    20
 74
     0
 42
0.00000001
 43
0.00000001
 40
0.0
 40
0.0
 40
0.0
 40
0.0
 40
0.0331602209088929
 40
0.0968652967602974
 40
0.1608209386106546
 40
0.2250098653764064
 40
0.2893874283113805
 40
0.3538770972802717
 40
0.4183918490362092
 40
0.4828183502924178
 40
0.5470583574402219
 40
0.6110250882083691
 40
0.674652400552289
 40
0.7379369748266981
 40
0.8010335010162459
 40
0.8642594651048153
 40
0.928500467986352
 40
0.995486471591664
 40
1.0
 40
1.0
 40
1.0
 40
1.0
 10
329.5358794499383
 20
-193.2507188017776
 30
0.0
 10
329.5320177600852
 20
-193.4431711464644
 30
0.0
 10
329.5207372642574
 20
-194.0053493518363
 30
0.0
 10
329.3927197773309
 20
-195.0095775622233
 30
0.0
 10
329.102882181215
 20
-196.2587437768132
 30
0.0
 10
328.670618163302
 20
-197.5385846850487
 30
0.0
 10
328.1071985516052
 20
-198.8141783604927
 30
0.0
 10
327.4250646573833
 20
-200.0532157225533
 30
0.0
 10
326.6415052381081
 20
-201.2235384732009
 30
0.0
 10
325.7771234971752
 20
-202.2951686089394
 30
0.0
 10
324.8556103580818
 20
-203.2411023193959
 30
0.0
 10
323.9029813367426
 20
-204.0385052558451
 30
0.0
 10
322.9470849575674
 20
-204.669505280247
 30
0.0
 10
322.0161764773395
 20
-205.1231351800669
 30
0.0
 10
321.1391594979985
 20
-205.3937464036051
 30
0.0
 10
320.3366821957474
 20
-205.4917804424536
 30
0.0
 10
319.6338774693679
 20
-205.4054056343527
 30
0.0
 10
319.1943629809278
 20
-205.2879495894495
 30
0.0
 10
319.0076268253135
 20
-205.1464516142581
 30
0.0
 10
318.9958387909097
 20
-205.1375193162029
 30
0.0
  0
SPLINE
  5
139
330
1F
100
AcDbEntity
  8
0
  6
Continuous
 62
     7
370
    25
100
AcDbSpline
210
0.0
220
0.0
230
1.0
 70
     8
 71
     3
 72
    13
 73
     9
 74
     0
 42
0.00000001
 43
0.00000001
 40
0.0
 40
0.0
 40
0.0
 40
0.0
 40
0.0566364648557977
 40
0.2800062514210033
 40
0.4706799282839314
 40
0.6736541070620993
 40
0.8703766226761965
 40
1.0
 40
1.0
 40
1.0
 40
1.0
 10
349.7184609722344
 20
-116.3858494561791
 30
0.0
 10
349.773078041932
 20
-116.4115676519648
 30
0.0
 10
350.0431005616734
 20
-116.5387163999243
 30
0.0
 10
350.4028776818952
 20
-116.9230858908481
 30
0.0
 10
350.8183045432133
 20
-117.567976701048
 30
0.0
 10
351.1064991260279
 20
-118.3744554615407
 30
0.0
 10
351.2601658107874
 20
-119.2337319475941
 30
0.0
 10
351.2758584260108
 20
-119.8335786757154
 30
0.0
 10
351.2820914745287
 20
-120.0718355695764
 30
0.0
  0
SPLINE
  5
13A
330
1F
100
AcDbEntity
  8
0
  6
Continuous
 62
     7
370
    25
100
AcDbSpline
210
0.0
220
0.0
230
1.0
 70
     8
 71
     3
 72
    24
 73
    20
 74
     0
 42
0.00000001
 43
0.00000001
 40
0.0
 40
0.0
 40
0.0
 40
0.0
 40
0.0331602209088929
 40
0.0968652967602965
 40
0.1608209386106572
 40
0.2250098653764092
 40
0.2893874283113743
 40
0.3538770972802722
 40
0.4183918490362091
 40
0.4828183502924188
 40
0.547058357440224
 40
0.6110250882083677
 40
0.6746524005522886
 40
0.7379369748267001
 40
0.801033501016246
 40
0.864259465104813
 40
0.928500467986354
 40
0.9954864715916667
 40
1.0
 40
1.0
 40
1.0
 40
1.0
 10
351.2820914745287
 20
-120.0718355695764
 30
0.0
 10
351.2782297846756
 20
-120.2642879142632
 30
0.0
 10
351.2669492888479
 20
-120.8264661196351
 30
0.0
 10
351.1389318019212
 20
-121.8306943300222
 30
0.0
 10
350.8490942058054
 20
-123.0798605446121
 30
0.0
 10
350.4168301878923
 20
-124.3597014528476
 30
0.0
 10
349.8534105761955
 20
-125.6352951282916
 30
0.0
 10
349.1712766819737
 20
-126.8743324903522
 30
0.0
 10
348.3877172626985
 20
-128.0446552409998
 30
0.0
 10
347.5233355217656
 20
-129.1162853767383
 30
0.0
 10
346.6018223826721
 20
-130.0622190871948
 30
0.0
 10
345.6491933613331
 20
-130.859622023644
 30
0.0
 10
344.6932969821577
 20
-131.4906220480459
 30
0.0
 10
343.7623885019299
 20
-131.9442519478658
 30
0.0
 10
342.8853715225888
 20
-132.214863171404
 30
0.0
 10
342.0828942203377
 20
-132.3128972102525
 30
0.0
 10
341.3800894939582
 20
-132.2265224021516
 30
0.0
 10
340.940575005518
 20
-132.1090663572483
 30
0.0
 10
340.7538388499038
 20
-131.9675683820569
 30
0.0
 10
340.7420508155
 20
-131.9586360840018
 30
0.0
  0
LWPOLYLINE
  5
13B
330
1F
100
AcDbEntity
  8
0
  6
Continuous
 62
     7
370
    25
100
AcDbPolyline
 90
      143
 70
   128
 43
0.0
 10
485.3922645298
 20
-103.0376224454
 10
485.3057523592
 20
-98.5727732525
 10
485.0463851989
 20
-94.2165490376
 10
484.6146707725
 20
-89.9774773143
 10
484.0114541811
 20
-85.8638562645
 10
483.2379162496
 20
-81.8837384945
 10
482.2955712148
 20
-78.0449152719
 10
481.1862637612
 20
-74.3549012733
 10
479.9121654105
 20
-70.8209198744
 10
478.4757702699
 20
-67.4498890098
 10
476.8798901504
 20
-64.2484076307
 10
475.1276490622
 20
-61.2227427872
 10
473.2224770996
 20
-58.3788173604
 10
471.1681037261
 20
-55.7221984678
 10
468.9685504741
 20
-53.2580865657
 10
466.6281230724
 20
-50.9913052687
 10
464.1514030176
 20
-48.9262919079
 10
461.5432386053
 20
-47.0670888437
 10
458.80873544
 20
-45.4173355536
 10
455.9532464401
 20
-43.9802615069
 10
452.9823613592
 20
-42.7586798438
 10
449.9018958446
 20
-41.7549818676
 10
446.717880052
 20
-40.9711323642
 10
443.436546842
 20
-40.4086657559
 10
440.0643195783
 20
-40.0686830975
 10
436.6077995542
 20
-39.9518499209
 10
433.07375307
 20
-40.0583949327
 10
429.4690981877
 20
-40.3881095659
 10
425.8008911883
 20
-40.9403483887
 10
422.0763127594
 20
-41.7140303677
 10
418.3026539382
 20
-42.707640984
 10
414.4873018391
 20
-43.9192351982
 10
410.6377251928
 20
-45.3464412577
 10
406.7614597265
 20
-46.9864653397
 10
402.8660934119
 20
-48.83609702
 10
398.9592516115
 20
-50.8917155577
 10
395.0485821515
 20
-53.149296983
 10
391.141740351
 20
-55.6044219742
 10
387.2463740364
 20
-58.2522845089
 10
383.3701085702
 20
-61.0877012719
 10
379.5205319239
 20
-64.1051218015
 10
375.7051798247
 20
-67.2986393556
 10
371.9315210035
 20
-70.6620024735
 10
368.2069425747
 20
-74.1886272139
 10
364.5387355753
 20
-77.8716100433
 10
360.9340806929
 20
-81.7037413499
 10
357.4000342087
 20
-85.6775195566
 10
353.9435141847
 20
-89.7851658061
 10
350.571286921
 20
-94.0186391879
 10
347.2899537109
 20
-98.369652479
 10
344.1059379184
 20
-102.8296883667
 10
341.0254724037
 20
-107.3900161211
 10
338.0545873229
 20
-112.0417086867
 10
335.1990983229
 20
-116.7756601567
 10
332.4645951576
 20
-121.5826035988
 10
329.8564307454
 20
-126.4531291955
 10
327.3797106905
 20
-131.3777026642
 10
325.0392832888
 20
-136.3466839212
 10
322.8397300368
 20
-141.3503459522
 10
320.7853566634
 20
-146.3788938539
 10
318.8801847007
 20
-151.4224840076
 10
317.1279436126
 20
-156.4712433487
 10
315.532063493
 20
-161.5152886938
 10
314.0956683524
 20
-166.5447460871
 10
312.8215700017
 20
-171.5497701297
 10
311.7122625482
 20
-176.520563252
 10
310.7699175134
 20
-181.4473948929
 10
309.9963795818
 20
-186.3206205483
 10
309.3931629904
 20
-191.13070065
 10
308.961448564
 20
-195.8682192403
 10
308.7020814038
 20
-200.5239024042
 10
308.6155692332
 20
-205.0886364232
 10
308.7020814038
 20
-209.5534856161
 10
308.961448564
 20
-213.909709831
 10
309.3931629904
 20
-218.1487815543
 10
309.9963795818
 20
-222.2624026041
 10
310.7699175134
 20
-226.2425203741
 10
311.7122625482
 20
-230.0813435967
 10
312.8215700017
 20
-233.7713575953
 10
314.0956683524
 20
-237.3053389942
 10
315.532063493
 20
-240.6763698588
 10
317.1279436126
 20
-243.8778512379
 10
318.8801847007
 20
-246.9035160814
 10
320.7853566634
 20
-249.7474415082
 10
322.8397300368
 20
-252.4040604008
 10
325.0392832888
 20
-254.8681723029
 10
327.3797106905
 20
-257.1349535998
 10
329.8564307454
 20
-259.1999669607
 10
332.4645951576
 20
-261.0591700248
 10
335.1990983229
 20
-262.708923315
 10
338.0545873229
 20
-264.1459973616
 10
341.0254724037
 20
-265.3675790248
 10
344.1059379184
 20
-266.371277001
 10
347.2899537109
 20
-267.1551265044
 10
350.571286921
 20
-267.7175931127
 10
353.9435141847
 20
-268.0575757711
 10
357.4000342087
 20
-268.1744089477
 10
360.9340806929
 20
-268.0678639359
 10
364.5387355753
 20
-267.7381493026
 10
368.2069425747
 20
-267.1859104798
 10
371.9315210035
 20
-266.4122285009
 10
375.7051798247
 20
-265.4186178846
 10
379.5205319239
 20
-264.2070236704
 10
383.3701085702
 20
-262.7798176108
 10
387.2463740364
 20
-261.1397935288
 10
391.141740351
 20
-259.2901618486
 10
395.0485821515
 20
-257.2345433109
 10
398.9592516115
 20
-254.9769618856
 10
402.8660934119
 20
-252.5218368944
 10
406.7614597265
 20
-249.8739743597
 10
410.6377251928
 20
-247.0385575967
 10
414.4873018391
 20
-244.021137067
 10
418.3026539382
 20
-240.827619513
 10
422.0763127594
 20
-237.4642563951
 10
425.8008911883
 20
-233.9376316547
 10
429.4690981877
 20
-230.2546488253
 10
433.07375307
 20
-226.4225175187
 10
436.6077995542
 20
-222.4487393119
 10
440.0643195783
 20
-218.3410930625
 10
443.436546842
 20
-214.1076196807
 10
446.717880052
 20
-209.7566063895
 10
449.9018958446
 20
-205.2965705019
 10
452.9823613592
 20
-200.7362427474
 10
455.9532464401
 20
-196.0845501819
 10
458.8087354401
 20
-191.3505987119
 10
461.5432386053
 20
-186.5436552698
 10
464.1514030176
 20
-181.6731296731
 10
466.6281230724
 20
-176.7485562043
 10
468.9685504741
 20
-171.7795749474
 10
471.1681037261
 20
-166.7759129163
 10
473.2224770996
 20
-161.7473650146
 10
475.1276490622
 20
-156.703774861
 10
476.8798901504
 20
-151.6550155198
 10
478.4757702699
 20
-146.6109701748
 10
479.9121654105
 20
-141.5815127815
 10
481.1862637612
 20
-136.5764887389
 10
482.2955712148
 20
-131.6056956166
 10
483.2379162496
 20
-126.6788639756
 10
484.0114541811
 20
-121.8056383203
 10
484.6146707725
 20
-116.9955582186
 10
485.0463851989
 20
-112.2580396282
 10
485.3057523592
 20
-107.6023564644
 10
485.3922645298
 20
-103.0376224454
  0
ARC
  5
13C
330
1F
100
AcDbEntity
  8
0
  6
Continuous
 62
     7
370
    25
100
AcDbCircle
 10
356.1342018708
 20
-226.4930418506
 30
0.0
 40
42.83070139049003
100
AcDbArc
 50
222.6725045266
 51
257.4219704308
  0
ARC
  5
13D
330
1F
100
AcDbEntity
  8
0
  6
Continuous
 62
     7
370
    25
100
AcDbCircle
 10
439.3093439606
 20
-82.4117131135
 30
0.0
 40
42.78767408978131
100
AcDbArc
 50
43.301400015
 51
76.8911919033
  0
ARC
  5
13E
330
1F
100
AcDbEntity
  8
0
  6
Continuous
 62
     7
370
    25
100
AcDbCircle
 10
454.5582687918
 20
-91.745359782
 30
0.0
 40
43.25502360874849
100
AcDbArc
 50
42.50415657
 51
59.8829647516
  0
ARC
  5
13F
330
1F
100
AcDbEntity
  8
0
  6
Continuous
 62
     7
370
    25
100
AcDbCircle
 10
371.7771775191
 20
-235.1674223407
 30
0.0
 40
43.14744464086964
100
AcDbArc
 50
240.1058012361
 51
256.9566725693
  0
LWPOLYLINE
  5
140
330
1F
100
AcDbEntity
  8
0
  6
Continuous
 62
     7
370
    25
100
AcDbPolyline
 90
       41
 70
   128
 43
0.0
 10
329.8287726688
 20
-192.8425147459
 10
329.7417160902
 20
-194.1701226898
 10
329.4826899765
 20
-195.5655539062
 10
329.0580724102
 20
-196.9944482473
 10
328.4783188851
 20
-198.4216215921
 10
327.7577048569
 20
-199.8119321966
 10
326.9139742347
 20
-201.1311459992
 10
325.9679024665
 20
-202.3467795782
 10
324.9427849791
 20
-203.4289000001
 10
323.8638635673
 20
-204.350861869
 10
322.7577048569
 20
-205.0899634238
 10
321.6515461465
 20
-205.6280055313
 10
320.5726247346
 20
-205.9517398091
 10
319.5475072473
 20
-206.0531948449
 10
318.6014354791
 20
-205.929872479
 10
317.7577048569
 20
-205.5848093174
 10
317.0370908287
 20
-205.0265019602
 10
316.4573373035
 20
-204.2686977876
 10
316.0327197372
 20
-203.3300564532
 10
315.7736936235
 20
-202.233690422
 10
315.686637045
 20
-201.0065958641
 10
315.7736936235
 20
-199.6789879201
 10
316.0327197372
 20
-198.2835567038
 10
316.4573373035
 20
-196.8546623627
 10
317.0370908287
 20
-195.4274890178
 10
317.7577048569
 20
-194.0371784134
 10
318.6014354791
 20
-192.7179646107
 10
319.5475072473
 20
-191.5023310318
 10
320.5726247346
 20
-190.4202106098
 10
321.6515461465
 20
-189.4982487409
 10
322.7577048569
 20
-188.7591471861
 10
323.8638635673
 20
-188.2211050786
 10
324.9427849791
 20
-187.8973708008
 10
325.9679024665
 20
-187.795915765
 10
326.9139742347
 20
-187.9192381309
 10
327.7577048569
 20
-188.2643012926
 10
328.4783188851
 20
-188.8226086497
 10
329.0580724102
 20
-189.5804128224
 10
329.4826899765
 20
-190.5190541567
 10
329.7417160902
 20
-191.615420188
 10
329.8287726688
 20
-192.8425147459
  0
LWPOLYLINE
  5
141
330
1F
100
AcDbEntity
  8
0
  6
Continuous
 62
     7
370
    25
100
AcDbPolyline
 90
       41
 70
   128
 43
0.0
 10
456.5749846933
 20
-180.2985462367
 10
456.4879281148
 20
-181.6261541806
 10
456.2289020011
 20
-183.021585397
 10
455.8042844348
 20
-184.4504797381
 10
455.2245309097
 20
-185.877653083
 10
454.5039168815
 20
-187.2679636874
 10
453.6601862592
 20
-188.5871774901
 10
452.7141144911
 20
-189.802811069
 10
451.6889970037
 20
-190.884931491
 10
450.6100755919
 20
-191.8068933599
 10
449.5039168815
 20
-192.5459949147
 10
448.3977581711
 20
-193.0840370221
 10
447.3188367592
 20
-193.4077712999
 10
446.2937192719
 20
-193.5092263358
 10
445.3476475037
 20
-193.3859039699
 10
444.5039168815
 20
-193.0408408082
 10
443.7833028533
 20
-192.4825334511
 10
443.2035493281
 20
-191.7247292784
 10
442.7789317618
 20
-190.7860879441
 10
442.5199056481
 20
-189.6897219128
 10
442.4328490696
 20
-188.4626273549
 10
442.5199056481
 20
-187.135019411
 10
442.7789317618
 20
-185.7395881946
 10
443.2035493281
 20
-184.3106938535
 10
443.7833028533
 20
-182.8835205086
 10
444.5039168815
 20
-181.4932099042
 10
445.3476475037
 20
-180.1739961015
 10
446.2937192719
 20
-178.9583625226
 10
447.3188367592
 20
-177.8762421006
 10
448.3977581711
 20
-176.9542802317
 10
449.5039168815
 20
-176.2151786769
 10
450.6100755919
 20
-175.6771365695
 10
451.6889970037
 20
-175.3534022917
 10
452.7141144911
 20
-175.2519472559
 10
453.6601862592
 20
-175.3752696217
 10
454.5039168815
 20
-175.7203327834
 10
455.2245309097
 20
-176.2786401405
 10
455.8042844348
 20
-177.0364443132
 10
456.2289020011
 20
-177.9750856475
 10
456.4879281148
 20
-179.0714516788
 10
456.5749846933
 20
-180.2985462367
  0
LWPOLYLINE
  5
142
330
1F
100
AcDbEntity
  8
0
  6
Continuous
 62
     7
370
    25
100
AcDbPolyline
 90
       41
 70
   128
 43
0.0
 10
456.5749846933
 20
-59.0484217447
 10
456.4879281148
 20
-60.3760296886
 10
456.2289020011
 20
-61.771460905
 10
455.8042844348
 20
-63.2003552461
 10
455.2245309097
 20
-64.627528591
 10
454.5039168815
 20
-66.0178391954
 10
453.6601862593
 20
-67.3370529981
 10
452.7141144911
 20
-68.552686577
 10
451.6889970037
 20
-69.634806999
 10
450.6100755919
 20
-70.5567688679
 10
449.5039168815
 20
-71.2958704227
 10
448.3977581711
 20
-71.8339125301
 10
447.3188367592
 20
-72.1576468079
 10
446.2937192719
 20
-72.2591018438
 10
445.3476475037
 20
-72.1357794779
 10
444.5039168815
 20
-71.7907163162
 10
443.7833028533
 20
-71.2324089591
 10
443.2035493281
 20
-70.4746047864
 10
442.7789317618
 20
-69.5359634521
 10
442.5199056481
 20
-68.4395974208
 10
442.4328490696
 20
-67.2125028629
 10
442.5199056481
 20
-65.884894919
 10
442.7789317618
 20
-64.4894637026
 10
443.2035493281
 20
-63.0605693615
 10
443.7833028533
 20
-61.6333960166
 10
444.5039168815
 20
-60.2430854122
 10
445.3476475037
 20
-58.9238716095
 10
446.2937192719
 20
-57.7082380306
 10
447.3188367592
 20
-56.6261176086
 10
448.3977581711
 20
-55.7041557397
 10
449.5039168815
 20
-54.9650541849
 10
450.6100755919
 20
-54.4270120775
 10
451.6889970037
 20
-54.1032777997
 10
452.7141144911
 20
-54.0018227638
 10
453.6601862593
 20
-54.1251451297
 10
454.5039168815
 20
-54.4702082914
 10
455.2245309097
 20
-55.0285156485
 10
455.8042844348
 20
-55.7863198212
 10
456.2289020011
 20
-56.7249611555
 10
456.4879281148
 20
-57.8213271868
 10
456.5749846933
 20
-59.0484217447
  0
LWPOLYLINE
  5
143
330
1F
100
AcDbEntity
  8
0
  6
Continuous
 62
     7
370
    25
100
AcDbPolyline
 90
       41
 70
   128
 43
0.0
 10
404.0749846933
 20
-64.2443036272
 10
403.9879281148
 20
-65.5719115711
 10
403.7289020011
 20
-66.9673427875
 10
403.3042844348
 20
-68.3962371286
 10
402.7245309097
 20
-69.8234104734
 10
402.0039168815
 20
-71.2137210779
 10
401.1601862593
 20
-72.5329348805
 10
400.2141144911
 20
-73.7485684595
 10
399.1889970037
 20
-74.8306888814
 10
398.1100755919
 20
-75.7526507503
 10
397.0039168815
 20
-76.4917523051
 10
395.8977581711
 20
-77.0297944126
 10
394.8188367592
 20
-77.3535286904
 10
393.7937192719
 20
-77.4549837262
 10
392.8476475037
 20
-77.3316613604
 10
392.0039168815
 20
-76.9865981987
 10
391.2833028533
 20
-76.4282908415
 10
390.7035493281
 20
-75.6704866689
 10
390.2789317618
 20
-74.7318453345
 10
390.0199056481
 20
-73.6354793033
 10
389.9328490696
 20
-72.4083847454
 10
390.0199056481
 20
-71.0807768014
 10
390.2789317618
 20
-69.6853455851
 10
390.7035493281
 20
-68.256451244
 10
391.2833028533
 20
-66.8292778991
 10
392.0039168815
 20
-65.4389672947
 10
392.8476475037
 20
-64.119753492
 10
393.7937192719
 20
-62.9041199131
 10
394.8188367592
 20
-61.8219994911
 10
395.8977581711
 20
-60.9000376222
 10
397.0039168815
 20
-60.1609360674
 10
398.1100755919
 20
-59.6228939599
 10
399.1889970037
 20
-59.2991596821
 10
400.2141144911
 20
-59.1977046463
 10
401.1601862593
 20
-59.3210270122
 10
402.0039168815
 20
-59.6660901739
 10
402.7245309097
 20
-60.224397531
 10
403.3042844348
 20
-60.9822017037
 10
403.7289020011
 20
-61.920843038
 10
403.9879281148
 20
-63.0172090693
 10
404.0749846933
 20
-64.2443036272
  0
LWPOLYLINE
  5
144
330
1F
100
AcDbEntity
  8
0
  6
Continuous
 62
     7
370
    25
100
AcDbPolyline
 90
      114
 70
   128
 43
0.0
 10
453.5724593764
 20
-121.4068049614
 10
453.4850343149
 20
-125.0875993009
 10
453.2230293562
 20
-128.8579553436
 10
452.7872543426
 20
-132.7062191349
 10
452.1790562297
 20
-136.6204959121
 10
451.4003149231
 20
-140.5886868698
 10
450.4534374675
 20
-144.5985265574
 10
449.3413506068
 20
-148.63762079
 10
448.0674917378
 20
-152.693484959
 10
446.6357982852
 20
-156.7535826205
 10
445.0506955315
 20
-160.8053642454
 10
443.3170829385
 20
-164.8363060089
 10
441.4403190032
 20
-168.833948501
 10
439.4262046956
 20
-172.7859352378
 10
437.2809655274
 20
-176.6800508548
 10
435.0112323101
 20
-180.5042588639
 10
432.6240206589
 20
-184.2467388572
 10
430.1267093082
 20
-187.8959230435
 10
427.5270173043
 20
-191.4405320036
 10
424.8329801462
 20
-194.8696095544
 10
422.0529249484
 20
-198.1725566137
 10
419.1954447022
 20
-201.3391639614
 10
416.2693717152
 20
-204.3596437956
 10
413.2837503113
 20
-207.2246599863
 10
410.2478088753
 20
-209.9253569327
 10
407.1709313282
 20
-212.4533869351
 10
404.062628122
 20
-214.8009359979
 10
400.9325068439
 20
-216.9607479813
 10
397.7902425193
 20
-218.9261470303
 10
394.6455477073
 20
-220.6910582091
 10
391.5081424792
 20
-222.2500262783
 10
388.3877243749
 20
-223.598232557
 10
385.2939384278
 20
-224.7315098168
 10
382.236347353
 20
-225.6463551627
 10
379.2244019894
 20
-226.3399408602
 10
376.2674120874
 20
-226.8101230755
 10
373.3745175334
 20
-227.0554485025
 10
370.5546600986
 20
-227.0751588542
 10
367.8165558007
 20
-226.8691932072
 10
365.1686679633
 20
-226.4381881894
 10
362.6191810559
 20
-225.7834760126
 10
360.1759753965
 20
-224.9070803547
 10
357.8466027936
 20
-223.8117101043
 10
355.6382632046
 20
-222.5007509883
 10
353.5577824805
 20
-220.978255106
 10
351.6115912681
 20
-219.2489284051
 10
349.8057051328
 20
-217.3181161351
 10
348.1457059652
 20
-215.1917863263
 10
346.6367247275
 20
-212.8765113421
 10
345.2834255945
 20
-210.379447565
 10
344.0899915359
 20
-207.7083132758
 10
343.0601113883
 20
-204.8713647977
 10
342.1969684521
 20
-201.8773709758
 10
341.5032306525
 20
-198.7355860733
 10
340.9810422936
 20
-195.4557211675
 10
340.6320174294
 20
-192.0479141328
 10
340.4572348758
 20
-188.5226983054
 10
340.4572348758
 20
-184.8909699253
 10
340.6320174294
 20
-181.163954457
 10
340.9810422936
 20
-177.3531718917
 10
341.5032306525
 20
-173.4704011398
 10
342.1969684521
 20
-169.5276436232
 10
343.0601113883
 20
-165.5370861796
 10
344.0899915359
 20
-161.5110633931
 10
345.2834255945
 20
-157.4620194697
 10
346.6367247275
 20
-153.4024697719
 10
348.1457059652
 20
-149.3449621352
 10
349.8057051328
 20
-145.3020380833
 10
351.6115912681
 20
-141.2861940627
 10
353.5577824805
 20
-137.3098428171
 10
355.6382632046
 20
-133.3852750204
 10
357.8466027936
 20
-129.5246212866
 10
360.1759753965
 20
-125.7398146753
 10
362.6191810559
 20
-122.0425538068
 10
365.1686679633
 20
-118.4442667025
 10
367.8165558007
 20
-114.9560754616
 10
370.5546600986
 20
-111.5887618835
 10
373.3745175334
 20
-108.3527341414
 10
376.2674120874
 20
-105.2579946115
 10
379.2244019894
 20
-102.3141089565
 10
382.236347353
 20
-99.5301765581
 10
385.2939384278
 20
-96.914802392
 10
388.3877243749
 20
-94.4760704297
 10
391.5081424792
 20
-92.221518652
 10
394.6455477073
 20
-90.1581157492
 10
397.7902425193
 20
-88.2922395814
 10
400.9325068439
 20
-86.6296574651
 10
404.062628122
 20
-85.1755083461
 10
407.1709313282
 20
-83.9342869161
 10
410.2478088753
 20
-82.9098297194
 10
413.2837503113
 20
-82.1053032945
 10
416.2693717152
 20
-81.5231943865
 10
419.1954447022
 20
-81.1653022606
 10
422.0529249484
 20
-81.0327331409
 10
424.8329801462
 20
-81.1258967909
 10
427.5270173043
 20
-81.4445052472
 10
430.1267093082
 20
-81.9875737093
 10
432.6240206589
 20
-82.7534235836
 10
435.0112323101
 20
-83.7396876721
 10
437.2809655274
 20
-84.943317489
 10
439.4262046956
 20
-86.3605926835
 10
441.4403190032
 20
-87.9871325392
 10
443.3170829385
 20
-89.8179095147
 10
445.0506955315
 20
-91.8472647833
 10
446.6357982852
 20
-94.068925724
 10
448.0674917378
 20
-96.4760253102
 10
449.3413506068
 20
-99.0611233351
 10
450.4534374675
 20
-101.8162294089
 10
451.4003149231
 20
-104.7328276564
 10
452.1790562297
 20
-107.8019030398
 10
452.7872543426
 20
-111.0139692228
 10
453.2230293562
 20
-114.359097893
 10
453.4850343149
 20
-117.8269494493
 10
453.5724593764
 20
-121.4068049614
  0
LWPOLYLINE
  5
145
330
1F
100
AcDbEntity
  8
0
  6
Continuous
 62
     7
370
    25
100
AcDbPolyline
 90
       41
 70
   128
 43
0.0
 10
404.0749846933
 20
-235.7178741232
 10
403.9879281148
 20
-237.0454820671
 10
403.7289020011
 20
-238.4409132835
 10
403.3042844348
 20
-239.8698076246
 10
402.7245309096
 20
-241.2969809695
 10
402.0039168815
 20
-242.6872915739
 10
401.1601862592
 20
-244.0065053766
 10
400.2141144911
 20
-245.2221389555
 10
399.1889970037
 20
-246.3042593775
 10
398.1100755919
 20
-247.2262212464
 10
397.0039168815
 20
-247.9653228012
 10
395.8977581711
 20
-248.5033649086
 10
394.8188367592
 20
-248.8270991864
 10
393.7937192719
 20
-248.9285542222
 10
392.8476475037
 20
-248.8052318564
 10
392.0039168815
 20
-248.4601686947
 10
391.2833028533
 20
-247.9018613376
 10
390.7035493281
 20
-247.1440571649
 10
390.2789317618
 20
-246.2054158306
 10
390.0199056481
 20
-245.1090497993
 10
389.9328490696
 20
-243.8819552414
 10
390.0199056481
 20
-242.5543472975
 10
390.2789317618
 20
-241.1589160811
 10
390.7035493281
 20
-239.73002174
 10
391.2833028533
 20
-238.3028483951
 10
392.0039168815
 20
-236.9125377907
 10
392.8476475037
 20
-235.593323988
 10
393.7937192719
 20
-234.3776904091
 10
394.8188367592
 20
-233.2955699871
 10
395.8977581711
 20
-232.3736081182
 10
397.0039168815
 20
-231.6345065634
 10
398.1100755919
 20
-231.096464456
 10
399.1889970037
 20
-230.7727301782
 10
400.2141144911
 20
-230.6712751423
 10
401.1601862592
 20
-230.7945975082
 10
402.0039168815
 20
-231.1396606699
 10
402.7245309096
 20
-231.697968027
 10
403.3042844348
 20
-232.4557721997
 10
403.7289020011
 20
-233.394413534
 10
403.9879281148
 20
-234.4907795653
 10
404.0749846933
 20
-235.7178741232
  0
LWPOLYLINE
  5
146
330
1F
100
AcDbEntity
  8
0
  6
Continuous
 62
     7
370
    25
100
AcDbPolyline
 90
       41
 70
   128
 43
0.0
 10
478.3211967179
 20
-107.1196630045
 10
478.2341401394
 20
-108.4472709484
 10
477.9751140257
 20
-109.8427021648
 10
477.5504964594
 20
-111.2715965059
 10
476.9707429342
 20
-112.6987698508
 10
476.2501289061
 20
-114.0890804552
 10
475.4063982838
 20
-115.4082942579
 10
474.4603265157
 20
-116.6239278368
 10
473.4352090283
 20
-117.7060482588
 10
472.3562876165
 20
-118.6280101277
 10
471.2501289061
 20
-119.3671116825
 10
470.1439701957
 20
-119.9051537899
 10
469.0650487838
 20
-120.2288880677
 10
468.0399312965
 20
-120.3303431036
 10
467.0938595283
 20
-120.2070207377
 10
466.2501289061
 20
-119.861957576
 10
465.5295148779
 20
-119.3036502189
 10
464.9497613527
 20
-118.5458460462
 10
464.5251437864
 20
-117.6072047119
 10
464.2661176727
 20
-116.5108386806
 10
464.1790610942
 20
-115.2837441227
 10
464.2661176727
 20
-113.9561361788
 10
464.5251437864
 20
-112.5607049624
 10
464.9497613527
 20
-111.1318106213
 10
465.5295148779
 20
-109.7046372764
 10
466.2501289061
 20
-108.314326672
 10
467.0938595283
 20
-106.9951128693
 10
468.0399312965
 20
-105.7794792904
 10
469.0650487838
 20
-104.6973588684
 10
470.1439701957
 20
-103.7753969995
 10
471.2501289061
 20
-103.0362954447
 10
472.3562876165
 20
-102.4982533373
 10
473.4352090283
 20
-102.1745190595
 10
474.4603265157
 20
-102.0730640236
 10
475.4063982838
 20
-102.1963863895
 10
476.2501289061
 20
-102.5414495512
 10
476.9707429342
 20
-103.0997569083
 10
477.5504964594
 20
-103.857561081
 10
477.9751140257
 20
-104.7962024153
 10
478.2341401394
 20
-105.8925684466
 10
478.3211967179
 20
-107.1196630045
  0
LWPOLYLINE
  5
147
330
1F
100
AcDbEntity
  8
0
  6
Continuous
 62
     7
370
    25
100
AcDbPolyline
 90
       41
 70
   128
 43
0.0
 10
351.5749846933
 20
-240.9137560057
 10
351.4879281148
 20
-242.2413639496
 10
351.2289020011
 20
-243.636795166
 10
350.8042844348
 20
-245.0656895071
 10
350.2245309096
 20
-246.4928628519
 10
349.5039168815
 20
-247.8831734564
 10
348.6601862592
 20
-249.202387259
 10
347.7141144911
 20
-250.418020838
 10
346.6889970037
 20
-251.5001412599
 10
345.6100755919
 20
-252.4221031288
 10
344.5039168815
 20
-253.1612046836
 10
343.3977581711
 20
-253.6992467911
 10
342.3188367592
 20
-254.0229810689
 10
341.2937192719
 20
-254.1244361047
 10
340.3476475037
 20
-254.0011137388
 10
339.5039168815
 20
-253.6560505772
 10
338.7833028533
 20
-253.09774322
 10
338.2035493281
 20
-252.3399390474
 10
337.7789317618
 20
-251.401297713
 10
337.5199056481
 20
-250.3049316818
 10
337.4328490696
 20
-249.0778371239
 10
337.5199056481
 20
-247.7502291799
 10
337.7789317618
 20
-246.3547979636
 10
338.2035493281
 20
-244.9259036225
 10
338.7833028533
 20
-243.4987302776
 10
339.5039168815
 20
-242.1084196732
 10
340.3476475037
 20
-240.7892058705
 10
341.2937192719
 20
-239.5735722916
 10
342.3188367592
 20
-238.4914518696
 10
343.3977581711
 20
-237.5694900007
 10
344.5039168815
 20
-236.8303884459
 10
345.6100755919
 20
-236.2923463384
 10
346.6889970037
 20
-235.9686120606
 10
347.7141144911
 20
-235.8671570248
 10
348.6601862592
 20
-235.9904793907
 10
349.5039168815
 20
-236.3355425524
 10
350.2245309096
 20
-236.8938499095
 10
350.8042844348
 20
-237.6516540822
 10
351.2289020011
 20
-238.5902954165
 10
351.4879281148
 20
-239.6866614478
 10
351.5749846933
 20
-240.9137560057
  0
LWPOLYLINE
  5
148
330
1F
100
AcDbEntity
  8
0
  6
Continuous
 62
     7
370
    25
100
AcDbPolyline
 90
       41
 70
   128
 43
0.0
 10
351.5749846933
 20
-119.6636315137
 10
351.4879281148
 20
-120.9912394576
 10
351.2289020011
 20
-122.386670674
 10
350.8042844348
 20
-123.8155650151
 10
350.2245309097
 20
-125.2427383599
 10
349.5039168815
 20
-126.6330489644
 10
348.6601862593
 20
-127.952262767
 10
347.7141144911
 20
-129.167896346
 10
346.6889970037
 20
-130.2500167679
 10
345.6100755919
 20
-131.1719786368
 10
344.5039168815
 20
-131.9110801916
 10
343.3977581711
 20
-132.4491222991
 10
342.3188367592
 20
-132.7728565769
 10
341.2937192719
 20
-132.8743116127
 10
340.3476475037
 20
-132.7509892468
 10
339.5039168815
 20
-132.4059260852
 10
338.7833028533
 20
-131.847618728
 10
338.2035493281
 20
-131.0898145554
 10
337.7789317618
 20
-130.151173221
 10
337.5199056481
 20
-129.0548071898
 10
337.4328490696
 20
-127.8277126319
 10
337.5199056481
 20
-126.5001046879
 10
337.7789317618
 20
-125.1046734716
 10
338.2035493281
 20
-123.6757791305
 10
338.7833028533
 20
-122.2486057856
 10
339.5039168815
 20
-120.8582951812
 10
340.3476475037
 20
-119.5390813785
 10
341.2937192719
 20
-118.3234477996
 10
342.3188367592
 20
-117.2413273776
 10
343.3977581711
 20
-116.3193655087
 10
344.5039168815
 20
-115.5802639539
 10
345.6100755919
 20
-115.0422218464
 10
346.6889970037
 20
-114.7184875686
 10
347.7141144911
 20
-114.6170325328
 10
348.6601862593
 20
-114.7403548987
 10
349.5039168815
 20
-115.0854180604
 10
350.2245309097
 20
-115.6437254175
 10
350.8042844348
 20
-116.4015295901
 10
351.2289020011
 20
-117.3401709245
 10
351.4879281148
 20
-118.4365369558
 10
351.5749846933
 20
-119.6636315137
  0
ARC
  5
149
330
1F
100
AcDbEntity
  8
0
  6
Continuous
 62
     7
370
    25
100
AcDbCircle
 10
423.833353906
 20
-109.2235698668
 30
0.0
 40
26.74934947158211
100
AcDbArc
 50
44.619860248
 51
74.7038655819
  0
ARC
  5
14A
330
1F
100
AcDbEntity
  8
0
  6
Continuous
 62
     7
370
    25
100
AcDbCircle
 10
371.6275830746
 20
-199.6539326853
 30
0.0
 40
26.82417108655628
100
AcDbArc
 50
223.285465279
 51
256.6894512416
  0
LWPOLYLINE
  5
14B
330
1F
100
AcDbEntity
  8
0
  6
Continuous
 62
     1
370
    25
100
AcDbPolyline
 90
       51
 70
   128
 43
0.0
 10
486.8064780922
 20
-103.0376224454
 10
486.7192738242
 20
-107.6388743365
 10
486.4578317267
 20
-112.3318029657
 10
486.0226635848
 20
-117.1072217048
 10
485.4146212607
 20
-121.9557824473
 10
484.6348950257
 20
-126.8679939079
 10
483.6850112306
 20
-131.834240202
 10
482.5668293175
 20
-136.8447996692
 10
481.2825381799
 20
-141.8898639042
 10
479.8346518782
 20
-146.9595569566
 10
478.2260047177
 20
-152.0439546644
 10
476.4597457008
 20
-157.1331040803
 10
474.5393323625
 20
-162.2170429552
 10
472.4685240021
 20
-167.2858192401
 10
470.2513743241
 20
-172.3295105674
 10
467.8922235032
 20
-177.3382436744
 10
465.3956896878
 20
-182.3022137309
 10
462.7666599603
 20
-187.2117035324
 10
460.0102807697
 20
-192.0571025221
 10
457.1319478577
 20
-196.8289256038
 10
454.1372956963
 20
-201.5178317099
 10
451.0321864575
 20
-206.1146420863
 10
447.8226985386
 20
-210.6103582611
 10
444.5151146628
 20
-214.9961796586
 10
441.1159095811
 20
-219.2635208274
 10
437.6317373968
 20
-223.4040282469
 10
434.0694185407
 20
-227.4095966793
 10
430.4359264193
 20
-231.2723850363
 10
426.7383737639
 20
-234.9848317284
 10
422.9839987076
 20
-238.5396694667
 10
419.1801506159
 20
-241.9299394895
 10
415.3342756999
 20
-245.149005184
 10
411.4539024405
 20
-248.1905650779
 10
407.5466268505
 20
-251.048665175
 10
403.6200976054
 20
-253.71771061
 10
399.6820010705
 20
-256.1924766011
 10
395.7400462548
 20
-258.4681186778
 10
391.80194972
 20
-260.5401821638
 10
387.8754204749
 20
-262.4046108975
 10
383.9681448849
 20
-264.0577551722
 10
380.0877716254
 20
-265.4963788802
 10
376.2418967095
 20
-266.7176658481
 10
372.4380486177
 20
-267.7192253493
 10
368.6836735614
 20
-268.4990967841
 10
364.986120906
 20
-269.0557535175
 10
361.3526287846
 20
-269.3881058678
 10
357.7903099285
 20
-269.4955032397
 10
354.3061377443
 20
-269.3777353977
 10
350.9069326625
 20
-269.035032878
 10
347.5993487868
 20
-268.4680665369
 10
346.8070026934
 20
-268.2958209102
  0
LWPOLYLINE
  5
14C
330
1F
100
AcDbEntity
  8
0
  6
Continuous
 62
     1
370
    25
100
AcDbPolyline
 90
       15
 70
   128
 43
0.0
 10
470.4483304865
 20
-53.0663800578
 10
472.4685240021
 20
-55.343675076
 10
474.5393323625
 20
-58.0215469197
 10
476.4597457008
 20
-60.8882237499
 10
478.2260047177
 20
-63.9380939122
 10
479.8346518782
 20
-67.1651871423
 10
481.2825381799
 20
-70.5631862538
 10
482.5668293175
 20
-74.1254395039
 10
483.6850112306
 20
-77.8449736145
 10
484.6348950257
 20
-81.7145074229
 10
485.4146212607
 20
-85.726466135
 10
486.0226635848
 20
-89.8729961533
 10
486.4578317267
 20
-94.1459804504
 10
486.7192738242
 20
-98.5370544589
 10
486.8064780922
 20
-103.0376224454
  0
LWPOLYLINE
  5
14D
330
1F
100
AcDbEntity
  8
0
  6
Continuous
 62
     1
370
    25
100
AcDbPolyline
 90
       15
 70
   128
 43
0.0
 10
502.3628272783
 20
-112.0181116754
 10
502.2756230103
 20
-107.517543689
 10
502.0141809128
 20
-103.1264696804
 10
501.5790127709
 20
-98.8534853833
 10
500.9709704468
 20
-94.7069553651
 10
500.1912442118
 20
-90.694996653
 10
499.2413604167
 20
-86.8254628445
 10
498.1231785036
 20
-83.1059287339
 10
496.838887366
 20
-79.5436754839
 10
495.3910010643
 20
-76.1456763724
 10
493.7823539038
 20
-72.9185831422
 10
492.0160948869
 20
-69.86871298
 10
490.0956815486
 20
-67.0020361498
 10
488.0248731882
 20
-64.324164306
 10
486.4470973349
 20
-62.5203759232
  0
LWPOLYLINE
  5
14E
330
1F
100
AcDbEntity
  8
0
  6
Continuous
 62
     1
370
    25
100
AcDbPolyline
 90
       51
 70
   128
 43
0.0
 10
362.0393250257
 20
-277.2016489644
 10
363.1556979729
 20
-277.4485557669
 10
366.4632818486
 20
-278.0155221081
 10
369.8624869304
 20
-278.3582246278
 10
373.3466591146
 20
-278.4759924697
 10
376.9089779707
 20
-278.3685950979
 10
380.5424700921
 20
-278.0362427476
 10
384.2400227475
 20
-277.4795860142
 10
387.9943978038
 20
-276.6997145794
 10
391.7982458956
 20
-275.6981550781
 10
395.6441208115
 20
-274.4768681102
 10
399.524494071
 20
-273.0382444022
 10
403.431769661
 20
-271.3851001276
 10
407.3582989061
 20
-269.5206713939
 10
411.2963954409
 20
-267.4486079079
 10
415.2383502566
 20
-265.1729658312
 10
419.1764467915
 20
-262.69819984
 10
423.1029760366
 20
-260.029154405
 10
427.0102516266
 20
-257.171054308
 10
430.890624886
 20
-254.129494414
 10
434.736499802
 20
-250.9104287196
 10
438.5403478937
 20
-247.5201586967
 10
442.29472295
 20
-243.9653209584
 10
445.9922756054
 20
-240.2528742664
 10
449.6257677268
 20
-236.3900859093
 10
453.1880865829
 20
-232.3845174769
 10
456.6722587672
 20
-228.2440100574
 10
460.071463849
 20
-223.9766688886
 10
463.3790477247
 20
-219.5908474911
 10
466.5885356436
 20
-215.0951313164
 10
469.6936448824
 20
-210.4983209399
 10
472.6882970438
 20
-205.8094148338
 10
475.5666299558
 20
-201.0375917521
 10
478.3230091464
 20
-196.1921927625
 10
480.9520388739
 20
-191.282702961
 10
483.4485726893
 20
-186.3187329044
 10
485.8077235102
 20
-181.3099997974
 10
488.0248731882
 20
-176.2663084702
 10
490.0956815486
 20
-171.1975321853
 10
492.0160948869
 20
-166.1135933103
 10
493.7823539038
 20
-161.0244438945
 10
495.3910010643
 20
-155.9400461867
 10
496.838887366
 20
-150.8703531342
 10
498.1231785036
 20
-145.8252888993
 10
499.2413604167
 20
-140.814729432
 10
500.1912442118
 20
-135.8484831379
 10
500.9709704468
 20
-130.9362716773
 10
501.5790127709
 20
-126.0877109348
 10
502.0141809128
 20
-121.3122921958
 10
502.2756230103
 20
-116.6193635666
 10
502.3628272783
 20
-112.0181116754
  0
LWPOLYLINE
  5
14F
330
1F
100
AcDbEntity
  8
0
  6
Continuous
 62
     1
370
    25
100
AcDbPolyline
 90
       21
 70
   128
 43
0.0
 10
454.7337392052
 20
-177.0078129923
 10
454.5212171913
 20
-176.8938316968
 10
453.6917804268
 20
-176.6271673804
 10
452.7673976914
 20
-176.5831308766
 10
451.7732837364
 20
-176.7629233863
 10
450.7365553992
 20
-177.1616406386
 10
449.6854919261
 20
-177.7684066662
 10
448.6487635889
 20
-178.5666704736
 10
447.654649634
 20
-179.5346575051
 10
446.7302668986
 20
-180.6459635978
 10
445.900830134
 20
-181.8702752184
 10
445.1889642131
 20
-183.1741963375
 10
444.6140869825
 20
-184.522159386
 10
444.1918795943
 20
-185.8773954458
 10
443.9338587656
 20
-187.2029372101
 10
443.847062632
 20
-188.4626273549
 10
443.9338587656
 20
-189.6221048169
 10
444.1918795943
 20
-190.6497420735
 10
444.6140869825
 20
-191.517507859
 10
445.1889642131
 20
-192.2017317851
 10
445.747381519
 20
-192.6036787212
  0
LWPOLYLINE
  5
150
330
1F
100
AcDbEntity
  8
0
  6
Continuous
 62
     1
370
    25
100
AcDbPolyline
 90
       53
 70
   128
 43
0.0
 10
430.890045581
 20
-83.4218102416
 10
430.4197811841
 20
-83.2967222117
 10
427.8525853302
 20
-82.7604421055
 10
425.1922236366
 20
-82.4458162549
 10
422.4469191288
 20
-82.3538171505
 10
419.6251573856
 20
-82.4847291562
 10
416.7356603109
 20
-82.8381476305
 10
413.7873591747
 20
-83.4129801772
 10
410.7893670066
 20
-84.2074500218
 10
407.7509504288
 20
-85.2191015035
 10
404.6815010127
 20
-86.4448076656
 10
401.5905062505
 20
-87.8807799206
 10
398.48752023
 20
-89.5225797605
 10
395.3821341031
 20
-91.3651324761
 10
392.2839464404
 20
-93.4027428426
 10
389.2025335624
 20
-95.6291127231
 10
386.1474199396
 20
-98.0373605359
 10
383.1280487533
 20
-100.620042525
 10
380.1537527068
 20
-103.3691757684
 10
377.2337251785
 20
-106.2762628527
 10
374.3769918064
 20
-109.3323181384
 10
371.5923825895
 20
-112.5278955338
 10
368.8885045954
 20
-115.8531176922
 10
366.273715356
 20
-119.2977065425
 10
363.7560970349
 20
-122.851015058
 10
361.3434314462
 20
-126.5020601657
 10
359.0431760009
 20
-130.2395566944
 10
356.8624406567
 20
-134.0519522565
 10
354.8079659417
 20
-137.9274629558
 10
352.8861021194
 20
-141.8541098108
 10
351.1027895608
 20
-145.8197557811
 10
349.4635403828
 20
-149.8121432824
 10
347.9734214107
 20
-153.8189320736
 10
346.6370385167
 20
-157.8277374001
 10
345.458522384
 20
-161.8261682746
 10
344.4415157382
 20
-165.8018657762
 10
343.5891620886
 20
-169.7425412518
 10
342.9040960116
 20
-173.6360142994
 10
342.3884350071
 20
-177.4702504169
 10
342.0437729537
 20
-181.2333982002
 10
341.8711751821
 20
-184.9138259751
 10
341.8711751821
 20
-188.5001577504
 10
342.0437729537
 20
-191.98130838
 10
342.3884350071
 20
-195.3465178268
 10
342.9040960116
 20
-198.5853844213
 10
343.5891620886
 20
-201.6878970124
 10
344.4415157382
 20
-204.6444659116
 10
345.458522384
 20
-207.4459525337
 10
346.6370385167
 20
-210.0836976442
 10
347.9734214107
 20
-212.5495481242
 10
349.4635403828
 20
-214.835882171
 10
351.1027895608
 20
-216.9356328573
 10
352.1010159361
 20
-218.0454886354
  0
LWPOLYLINE
  5
151
330
1F
100
AcDbEntity
  8
0
  6
Continuous
 62
     1
370
    25
100
AcDbPolyline
 90
       52
 70
   128
 43
0.0
 10
366.7022125212
 20
-225.9664297064
 10
366.6591387469
 20
-225.9161220873
 10
365.0198895689
 20
-223.8163714011
 10
363.5297705968
 20
-221.5300373542
 10
362.1933877028
 20
-219.0641868743
 10
361.0148715701
 20
-216.4264417638
 10
359.9978649243
 20
-213.6249551416
 10
359.1455112747
 20
-210.6683862424
 10
358.4604451977
 20
-207.5658736513
 10
357.9447841932
 20
-204.3270070568
 10
357.6001221398
 20
-200.96179761
 10
357.4275243682
 20
-197.4806469804
 10
357.4275243682
 20
-193.8943152052
 10
357.6001221398
 20
-190.2138874302
 10
357.9447841932
 20
-186.4507396469
 10
358.4604451977
 20
-182.6165035294
 10
359.1455112747
 20
-178.7230304818
 10
359.9978649243
 20
-174.7823550062
 10
361.0148715701
 20
-170.8066575046
 10
362.1933877028
 20
-166.8082266302
 10
363.5297705968
 20
-162.7994213036
 10
365.0198895689
 20
-158.7926325124
 10
366.6591387469
 20
-154.8002450112
 10
368.4424513055
 20
-150.8345990408
 10
370.3643151278
 20
-146.9079521858
 10
372.4187898428
 20
-143.0324414865
 10
374.599525187
 20
-139.2200459244
 10
376.8997806323
 20
-135.4825493958
 10
379.3124462211
 20
-131.8315042881
 10
381.8300645421
 20
-128.2781957726
 10
384.4448537815
 20
-124.8336069223
 10
387.1487317756
 20
-121.5083847638
 10
389.9333409925
 20
-118.3128073685
 10
392.7900743646
 20
-115.2567520827
 10
395.7101018929
 20
-112.3496649984
 10
398.6843979394
 20
-109.6005317551
 10
401.7037691258
 20
-107.017849766
 10
404.7588827485
 20
-104.6096019532
 10
407.8402956265
 20
-102.3832320727
 10
410.9384832892
 20
-100.3456217062
 10
414.0438694161
 20
-98.5030689906
 10
417.1468554366
 20
-96.8612691506
 10
420.2378501988
 20
-95.4252968956
 10
423.3072996149
 20
-94.1995907335
 10
426.3457161927
 20
-93.1879392518
 10
429.3437083608
 20
-92.3934694072
 10
432.292009497
 20
-91.8186368606
 10
435.1815065717
 20
-91.4652183862
 10
438.0032683149
 20
-91.3343063805
 10
440.7485728227
 20
-91.426305485
 10
443.4089345163
 20
-91.7409313355
 10
444.2607034244
 20
-91.89229033
  0
LWPOLYLINE
  5
152
330
1F
100
AcDbEntity
  8
0
  6
Continuous
 62
     1
370
    25
100
AcDbPolyline
 90
       21
 70
   128
 43
0.0
 10
476.4799512298
 20
-103.8289297601
 10
476.2674292159
 20
-103.7149484646
 10
475.4379924513
 20
-103.4482841482
 10
474.5136097159
 20
-103.4042476444
 10
473.519495761
 20
-103.5840401541
 10
472.4827674238
 20
-103.9827574064
 10
471.4317039507
 20
-104.589523434
 10
470.3949756135
 20
-105.3877872414
 10
469.4008616586
 20
-106.3557742729
 10
468.4764789232
 20
-107.4670803656
 10
467.6470421586
 20
-108.6913919862
 10
466.9351762377
 20
-109.9953131053
 10
466.3602990071
 20
-111.3432761538
 10
465.9380916189
 20
-112.6985122136
 10
465.6800707902
 20
-114.0240539779
 10
465.5932746566
 20
-115.2837441227
 10
465.6800707902
 20
-116.4432215847
 10
465.9380916189
 20
-117.4708588413
 10
466.3602990071
 20
-118.3386246268
 10
466.9351762377
 20
-119.0228485529
 10
467.4935935436
 20
-119.424795489
  0
LWPOLYLINE
  5
153
330
1F
100
AcDbEntity
  8
0
  6
Continuous
 62
     1
370
    25
100
AcDbPolyline
 90
       21
 70
   128
 43
0.0
 10
402.2337392052
 20
-232.4271408788
 10
402.0212171913
 20
-232.3131595833
 10
401.1917804268
 20
-232.0464952669
 10
400.2673976914
 20
-232.0024587631
 10
399.2732837364
 20
-232.1822512728
 10
398.2365553992
 20
-232.5809685251
 10
397.1854919261
 20
-233.1877345527
 10
396.1487635889
 20
-233.9859983601
 10
395.154649634
 20
-234.9539853916
 10
394.2302668986
 20
-236.0652914843
 10
393.400830134
 20
-237.2896031049
 10
392.6889642131
 20
-238.593524224
 10
392.1140869825
 20
-239.9414872725
 10
391.6918795943
 20
-241.2967233323
 10
391.4338587656
 20
-242.6222650966
 10
391.347062632
 20
-243.8819552414
 10
391.4338587656
 20
-245.0414327034
 10
391.6918795943
 20
-246.06906996
 10
392.1140869825
 20
-246.9368357455
 10
392.6889642131
 20
-247.6210596716
 10
393.247381519
 20
-248.0230066077
  0
LWPOLYLINE
  5
154
330
1F
100
AcDbEntity
  8
0
  6
Continuous
 62
     1
370
    25
100
AcDbPolyline
 90
       21
 70
   128
 43
0.0
 10
454.7337392052
 20
-55.7576885003
 10
454.5212171913
 20
-55.6437072048
 10
453.6917804268
 20
-55.3770428884
 10
452.7673976914
 20
-55.3330063846
 10
451.7732837364
 20
-55.5127988943
 10
450.7365553992
 20
-55.9115161466
 10
449.6854919261
 20
-56.5182821742
 10
448.6487635889
 20
-57.3165459816
 10
447.654649634
 20
-58.2845330131
 10
446.7302668986
 20
-59.3958391058
 10
445.900830134
 20
-60.6201507264
 10
445.1889642131
 20
-61.9240718455
 10
444.6140869825
 20
-63.272034894
 10
444.1918795943
 20
-64.6272709538
 10
443.9338587656
 20
-65.9528127181
 10
443.847062632
 20
-67.2125028629
 10
443.9338587656
 20
-68.3719803249
 10
444.1918795943
 20
-69.3996175815
 10
444.6140869825
 20
-70.267383367
 10
445.1889642131
 20
-70.9516072931
 10
445.747381519
 20
-71.3535542292
  0
LWPOLYLINE
  5
155
330
1F
100
AcDbEntity
  8
0
  6
Continuous
 62
     1
370
    25
100
AcDbPolyline
 90
       21
 70
   128
 43
0.0
 10
349.7337392052
 20
-237.6230227613
 10
349.5212171913
 20
-237.5090414658
 10
348.6917804268
 20
-237.2423771494
 10
347.7673976914
 20
-237.1983406456
 10
346.7732837364
 20
-237.3781331553
 10
345.7365553992
 20
-237.7768504076
 10
344.6854919261
 20
-238.3836164352
 10
343.6487635889
 20
-239.1818802426
 10
342.654649634
 20
-240.1498672741
 10
341.7302668986
 20
-241.2611733668
 10
340.900830134
 20
-242.4854849874
 10
340.1889642131
 20
-243.7894061065
 10
339.6140869825
 20
-245.137369155
 10
339.1918795943
 20
-246.4926052148
 10
338.9338587656
 20
-247.8181469791
 10
338.847062632
 20
-249.0778371239
 10
338.9338587656
 20
-250.2373145859
 10
339.1918795943
 20
-251.2649518424
 10
339.6140869825
 20
-252.132717628
 10
340.1889642131
 20
-252.8169415541
 10
340.747381519
 20
-253.2188884902
  0
LWPOLYLINE
  5
156
330
1F
100
AcDbEntity
  8
0
  6
Continuous
 62
     1
370
    25
100
AcDbPolyline
 90
       21
 70
   128
 43
0.0
 10
402.2337392052
 20
-60.9535703828
 10
402.0212171913
 20
-60.8395890873
 10
401.1917804268
 20
-60.5729247709
 10
400.2673976914
 20
-60.5288882671
 10
399.2732837364
 20
-60.7086807768
 10
398.2365553992
 20
-61.1073980291
 10
397.1854919261
 20
-61.7141640567
 10
396.1487635889
 20
-62.5124278641
 10
395.154649634
 20
-63.4804148956
 10
394.2302668986
 20
-64.5917209883
 10
393.400830134
 20
-65.8160326089
 10
392.6889642131
 20
-67.119953728
 10
392.1140869825
 20
-68.4679167765
 10
391.6918795943
 20
-69.8231528363
 10
391.4338587656
 20
-71.1486946006
 10
391.347062632
 20
-72.4083847454
 10
391.4338587656
 20
-73.5678622074
 10
391.6918795943
 20
-74.5954994639
 10
392.1140869825
 20
-75.4632652495
 10
392.6889642131
 20
-76.1474891756
 10
393.247381519
 20
-76.5494361117
  0
LWPOLYLINE
  5
157
330
1F
100
AcDbEntity
  8
0
  6
Continuous
 62
     1
370
    25
100
AcDbPolyline
 90
       21
 70
   128
 43
0.0
 10
327.9875271806
 20
-189.5517815015
 10
327.7750051667
 20
-189.437800206
 10
326.9455684022
 20
-189.1711358896
 10
326.0211856668
 20
-189.1270993858
 10
325.0270717118
 20
-189.3068918955
 10
323.9903433746
 20
-189.7056091478
 10
322.9392799015
 20
-190.3123751754
 10
321.9025515643
 20
-191.1106389828
 10
320.9084376094
 20
-192.0786260143
 10
319.984054874
 20
-193.189932107
 10
319.1546181094
 20
-194.4142437276
 10
318.4427521885
 20
-195.7181648467
 10
317.8678749579
 20
-197.0661278952
 10
317.4456675697
 20
-198.421363955
 10
317.187646741
 20
-199.7469057193
 10
317.1008506074
 20
-201.0065958641
 10
317.187646741
 20
-202.1660733261
 10
317.4456675697
 20
-203.1937105826
 10
317.8678749579
 20
-204.0614763682
 10
318.4427521885
 20
-204.7457002943
 10
319.0011694944
 20
-205.1476472304
  0
LWPOLYLINE
  5
158
330
1F
100
AcDbEntity
  8
0
  6
Continuous
 62
     1
370
    25
100
AcDbPolyline
 90
       21
 70
   128
 43
0.0
 10
349.7337392052
 20
-116.3728982693
 10
349.5212171913
 20
-116.2589169738
 10
348.6917804268
 20
-115.9922526574
 10
347.7673976914
 20
-115.9482161536
 10
346.7732837364
 20
-116.1280086633
 10
345.7365553992
 20
-116.5267259156
 10
344.6854919261
 20
-117.1334919432
 10
343.6487635889
 20
-117.9317557506
 10
342.654649634
 20
-118.8997427821
 10
341.7302668986
 20
-120.0110488748
 10
340.900830134
 20
-121.2353604954
 10
340.1889642131
 20
-122.5392816145
 10
339.6140869825
 20
-123.887244663
 10
339.1918795943
 20
-125.2424807228
 10
338.9338587656
 20
-126.5680224871
 10
338.847062632
 20
-127.8277126319
 10
338.9338587656
 20
-128.9871900939
 10
339.1918795943
 20
-130.0148273504
 10
339.6140869825
 20
-130.882593136
 10
340.1889642131
 20
-131.5668170621
 10
340.747381519
 20
-131.9687639982
  0
ENDSEC
  0
SECTION
  2
OBJECTS
  0
DICTIONARY
  5
C
330
0
100
AcDbDictionary
281
     1
  3
ACAD_GROUP
350
D
  3
ACAD_LAYOUT
350
1A
  3
ACAD_MLINESTYLE
350
17
  3
ACAD_PLOTSETTINGS
350
19
  3
ACAD_PLOTSTYLENAME
350
E
  3
ACAD_SCALELIST
350
47
  3
DWGPROPS
350
159
  0
DICTIONARY
  5
D
102
{ACAD_REACTORS
330
C
102
}
330
C
100
AcDbDictionary
281
     1
  0
DICTIONARY
  5
1A
102
{ACAD_REACTORS
330
C
102
}
330
C
100
AcDbDictionary
281
     1
  3
Layout1
350
1E
  3
Layout2
350
26
  3
Model
350
22
  0
DICTIONARY
  5
17
102
{ACAD_REACTORS
330
C
102
}
330
C
100
AcDbDictionary
281
     1
  3
Standard
350
18
  0
DICTIONARY
  5
19
102
{ACAD_REACTORS
330
C
102
}
330
C
100
AcDbDictionary
281
     1
  0
ACDBDICTIONARYWDFLT
  5
E
102
{ACAD_REACTORS
330
C
102
}
330
C
100
AcDbDictionary
281
     1
  3
Normal
350
F
100
AcDbDictionaryWithDefault
340
F
  0
DICTIONARY
  5
47
102
{ACAD_REACTORS
330
C
102
}
330
C
100
AcDbDictionary
281
     1
  3
A0
350
48
  3
A1
350
49
  3
A2
350
4A
  3
A3
350
4B
  3
A4
350
4C
  3
A5
350
4D
  3
A6
350
4E
  3
A7
350
4F
  3
A8
350
50
  3
A9
350
51
  3
B0
350
52
  3
B1
350
53
  3
B2
350
54
  3
B3
350
55
  3
B4
350
56
  3
B5
350
57
  3
B6
350
58
  3
B7
350
59
  3
B8
350
5A
  3
B9
350
5B
  3
C0
350
5C
  3
C1
350
5D
  3
C2
350
5E
  3
C3
350
5F
  3
C4
350
60
  3
C5
350
61
  3
C6
350
62
  3
C7
350
63
  3
C8
350
64
  3
C9
350
65
  3
D0
350
66
  3
D1
350
67
  3
D2
350
68
  0
XRECORD
  5
159
102
{ACAD_REACTORS
330
C
102
}
330
C
100
AcDbXrecord
280
     1
  1
DWGPROPS COOKIE
  2

  3

  4

  6

  7

  8
b.kav
  9

300
=
301
=
302
=
303
=
304
=
305
=
306
=
307
=
308
=
309
=
 40
0.0
 41
2459741.467480197
 42
2459741.467482338
  1

 90
        0
  0
LAYOUT
  5
1E
102
{ACAD_REACTORS
330
1A
102
}
330
1A
100
AcDbPlotSettings
  1

  2
none_device
  4

  6

 40
0.0
 41
0.0
 42
0.0
 43
0.0
 44
0.0
 45
0.0
 46
0.0
 47
0.0
 48
0.0
 49
0.0
140
0.0
141
0.0
142
1.0
143
1.0
 70
   688
 72
     1
 73
     0
 74
     5
  7

 75
    16
147
1.0
148
0.0
149
0.0
100
AcDbLayout
  1
Layout1
 70
     1
 71
     1
 10
0.0
 20
0.0
 11
420.0
 21
297.0
 12
0.0
 22
0.0
 32
0.0
 14
1.0000000000E+20
 24
1.0000000000E+20
 34
1.0000000000E+20
 15
-1.0000000000E+20
 25
-1.0000000000E+20
 35
-1.0000000000E+20
146
0.0
 13
0.0
 23
0.0
 33
0.0
 16
1.0
 26
0.0
 36
0.0
 17
0.0
 27
1.0
 37
0.0
 76
     0
330
1B
  0
LAYOUT
  5
26
102
{ACAD_REACTORS
330
1A
102
}
330
1A
100
AcDbPlotSettings
  1

  2
none_device
  4

  6

 40
0.0
 41
0.0
 42
0.0
 43
0.0
 44
0.0
 45
0.0
 46
0.0
 47
0.0
 48
0.0
 49
0.0
140
0.0
141
0.0
142
1.0
143
1.0
 70
   688
 72
     1
 73
     0
 74
     5
  7

 75
    16
147
1.0
148
0.0
149
0.0
100
AcDbLayout
  1
Layout2
 70
     1
 71
     2
 10
0.0
 20
0.0
 11
0.0
 21
0.0
 12
0.0
 22
0.0
 32
0.0
 14
0.0
 24
0.0
 34
0.0
 15
0.0
 25
0.0
 35
0.0
146
0.0
 13
0.0
 23
0.0
 33
0.0
 16
1.0
 26
0.0
 36
0.0
 17
0.0
 27
1.0
 37
0.0
 76
     0
330
23
  0
LAYOUT
  5
22
102
{ACAD_REACTORS
330
1A
102
}
330
1A
100
AcDbPlotSettings
  1

  2
none_device
  4
Letter_(8.50_x_11.00_Inches)
  6

 40
6.35
 41
6.35
 42
6.35000508
 43
6.35000508
 44
215.9
 45
279.4
 46
0.0
 47
0.0
 48
0.0
 49
0.0
140
0.0
141
0.0
142
1.0
143
1.0
 70
  1712
 72
     1
 73
     0
 74
     0
  7

 75
     0
147
1.0
148
0.0
149
0.0
100
AcDbLayout
  1
Model
 70
     1
 71
     0
 10
0.0
 20
0.0
 11
279.4
 21
215.9
 12
0.0
 22
0.0
 32
0.0
 14
0.0
 24
0.0
 34
0.0
 15
279.4
 25
215.9
 35
0.0
146
0.0
 13
0.0
 23
0.0
 33
0.0
 16
1.0
 26
0.0
 36
0.0
 17
0.0
 27
1.0
 37
0.0
 76
     0
330
1F
331
29
  0
MLINESTYLE
  5
18
102
{ACAD_REACTORS
330
17
102
}
330
17
100
AcDbMlineStyle
  2
Standard
 70
     0
  3

 62
   256
 51
90.0
 52
90.0
 71
     2
 49
0.5
 62
   256
  6
BYLAYER
 49
-0.5
 62
   256
  6
BYLAYER
  0
ACDBPLACEHOLDER
  5
F
102
{ACAD_REACTORS
330
E
102
}
330
E
  0
SCALE
  5
48
102
{ACAD_REACTORS
330
47
102
}
330
47
100
AcDbScale
 70
     0
300
1:1
140
1.0
141
1.0
290
     1
  0
SCALE
  5
49
102
{ACAD_REACTORS
330
47
102
}
330
47
100
AcDbScale
 70
     0
300
1:2
140
1.0
141
2.0
290
     0
  0
SCALE
  5
4A
102
{ACAD_REACTORS
330
47
102
}
330
47
100
AcDbScale
 70
     0
300
1:4
140
1.0
141
4.0
290
     0
  0
SCALE
  5
4B
102
{ACAD_REACTORS
330
47
102
}
330
47
100
AcDbScale
 70
     0
300
1:5
140
1.0
141
5.0
290
     0
  0
SCALE
  5
4C
102
{ACAD_REACTORS
330
47
102
}
330
47
100
AcDbScale
 70
     0
300
1:8
140
1.0
141
8.0
290
     0
  0
SCALE
  5
4D
102
{ACAD_REACTORS
330
47
102
}
330
47
100
AcDbScale
 70
     0
300
1:10
140
1.0
141
10.0
290
     0
  0
SCALE
  5
4E
102
{ACAD_REACTORS
330
47
102
}
330
47
100
AcDbScale
 70
     0
300
1:16
140
1.0
141
16.0
290
     0
  0
SCALE
  5
4F
102
{ACAD_REACTORS
330
47
102
}
330
47
100
AcDbScale
 70
     0
300
1:20
140
1.0
141
20.0
290
     0
  0
SCALE
  5
50
102
{ACAD_REACTORS
330
47
102
}
330
47
100
AcDbScale
 70
     0
300
1:30
140
1.0
141
30.0
290
     0
  0
SCALE
  5
51
102
{ACAD_REACTORS
330
47
102
}
330
47
100
AcDbScale
 70
     0
300
1:40
140
1.0
141
40.0
290
     0
  0
SCALE
  5
52
102
{ACAD_REACTORS
330
47
102
}
330
47
100
AcDbScale
 70
     0
300
1:50
140
1.0
141
50.0
290
     0
  0
SCALE
  5
53
102
{ACAD_REACTORS
330
47
102
}
330
47
100
AcDbScale
 70
     0
300
1:100
140
1.0
141
100.0
290
     0
  0
SCALE
  5
54
102
{ACAD_REACTORS
330
47
102
}
330
47
100
AcDbScale
 70
     0
300
2:1
140
2.0
141
1.0
290
     0
  0
SCALE
  5
55
102
{ACAD_REACTORS
330
47
102
}
330
47
100
AcDbScale
 70
     0
300
4:1
140
4.0
141
1.0
290
     0
  0
SCALE
  5
56
102
{ACAD_REACTORS
330
47
102
}
330
47
100
AcDbScale
 70
     0
300
8:1
140
8.0
141
1.0
290
     0
  0
SCALE
  5
57
102
{ACAD_REACTORS
330
47
102
}
330
47
100
AcDbScale
 70
     0
300
10:1
140
10.0
141
1.0
290
     0
  0
SCALE
  5
58
102
{ACAD_REACTORS
330
47
102
}
330
47
100
AcDbScale
 70
     0
300
100:1
140
100.0
141
1.0
290
     0
  0
SCALE
  5
59
102
{ACAD_REACTORS
330
47
102
}
330
47
100
AcDbScale
 70
     0
300
1/128" = 1'-0"
140
0.0078125
141
12.0
290
     0
  0
SCALE
  5
5A
102
{ACAD_REACTORS
330
47
102
}
330
47
100
AcDbScale
 70
     0
300
1/64" = 1'-0"
140
0.015625
141
12.0
290
     0
  0
SCALE
  5
5B
102
{ACAD_REACTORS
330
47
102
}
330
47
100
AcDbScale
 70
     0
300
1/32" = 1'-0"
140
0.03125
141
12.0
290
     0
  0
SCALE
  5
5C
102
{ACAD_REACTORS
330
47
102
}
330
47
100
AcDbScale
 70
     0
300
1/16" = 1'-0"
140
0.0625
141
12.0
290
     0
  0
SCALE
  5
5D
102
{ACAD_REACTORS
330
47
102
}
330
47
100
AcDbScale
 70
     0
300
3/32" = 1'-0"
140
0.09375
141
12.0
290
     0
  0
SCALE
  5
5E
102
{ACAD_REACTORS
330
47
102
}
330
47
100
AcDbScale
 70
     0
300
1/8" = 1'-0"
140
0.125
141
12.0
290
     0
  0
SCALE
  5
5F
102
{ACAD_REACTORS
330
47
102
}
330
47
100
AcDbScale
 70
     0
300
3/16" = 1'-0"
140
0.1875
141
12.0
290
     0
  0
SCALE
  5
60
102
{ACAD_REACTORS
330
47
102
}
330
47
100
AcDbScale
 70
     0
300
1/4" = 1'-0"
140
0.25
141
12.0
290
     0
  0
SCALE
  5
61
102
{ACAD_REACTORS
330
47
102
}
330
47
100
AcDbScale
 70
     0
300
3/8" = 1'-0"
140
0.375
141
12.0
290
     0
  0
SCALE
  5
62
102
{ACAD_REACTORS
330
47
102
}
330
47
100
AcDbScale
 70
     0
300
1/2" = 1'-0"
140
0.5
141
12.0
290
     0
  0
SCALE
  5
63
102
{ACAD_REACTORS
330
47
102
}
330
47
100
AcDbScale
 70
     0
300
3/4" = 1'-0"
140
0.75
141
12.0
290
     0
  0
SCALE
  5
64
102
{ACAD_REACTORS
330
47
102
}
330
47
100
AcDbScale
 70
     0
300
1" = 1'-0"
140
1.0
141
12.0
290
     0
  0
SCALE
  5
65
102
{ACAD_REACTORS
330
47
102
}
330
47
100
AcDbScale
 70
     0
300
1-1/2" = 1'-0"
140
1.5
141
12.0
290
     0
  0
SCALE
  5
66
102
{ACAD_REACTORS
330
47
102
}
330
47
100
AcDbScale
 70
     0
300
3" = 1'-0"
140
3.0
141
12.0
290
     0
  0
SCALE
  5
67
102
{ACAD_REACTORS
330
47
102
}
330
47
100
AcDbScale
 70
     0
300
6" = 1'-0"
140
6.0
141
12.0
290
     0
  0
SCALE
  5
68
102
{ACAD_REACTORS
330
47
102
}
330
47
100
AcDbScale
 70
     0
300
1'-0" = 1'-0"
140
12.0
141
12.0
290
     0
  0
ENDSEC
  0
EOF
